  0
SECTION
  2
HEADER
  9
$INSBASE
 10
0.0000
 20
0.0000
  9
$EXTMIN
 10
-32.6763
 20
-78.4203
  9
$EXTMAX
 10
31.2238
 20
11.1796
  9
$LIMMIN
 10
-32.6763
 20
-78.4203
  9
$LIMMAX
 10
31.2238
 20
11.1796
  9
$VIEWCTR
 10
-0.7262
 20
-33.6203
  9
$VIEWSIZE
 40
121.309513
  9
$TEXTSTYLE
  7
STANDARD
  9
$CLAYER
  8
default
  0
ENDSEC
  0
SECTION
  2
TABLES
  0
TABLE
  2
LTYPE
 70
     2
  0
LTYPE
  2
CONTINUOUS
 70
    64
  3
Solid line
 72
    65
 73
     0
 40
0.0
  0
LTYPE
  2
HIDDEN
 70
    64
  3
_ _ _ _ _ _ _ _ _ _ _ _ _ _ _ _ _ _ _ _ _ _ _
 72
    65
 73
     2
 40
0.375
 49
0.25
 49
-0.125
  0
ENDTAB
  0
TABLE
  2
LAYER
 70
     1
  0
LAYER
  2
default
 70
    64
 62
     7
  6
CONTINUOUS
  0
ENDTAB
  0
TABLE
  2
STYLE
 70
     2
  0
STYLE
  2
STANDARD
 70
     0
 40
0.0
 41
1.0
 50
0.0
 71
     0
 42
0.2
  3
txt
  4

  0
STYLE
  2
COMPLEX
 70
     0
 40
0.0
 41
1.0
 50
0.0
 71
     0
 42
0.2
  3
complex
  4

  0
ENDTAB
  0
TABLE
  2
VIEW
 70
     0
  0
ENDTAB
  0
ENDSEC
  0
SECTION
  2
BLOCKS
  0
ENDSEC
  0
SECTION
  2
ENTITIES
  0
LINE
  8
default
 10
-1.0262
 20
-0.0510
 11
-1.0262
 21
0.2844
  0
LINE
  8
default
 10
-1.0262
 20
-0.0510
 11
-1.0262
 21
3.9490
  0
LINE
  8
default
 10
-1.0262
 20
-37.5652
 11
-1.0262
 21
3.9490
  0
ARC
  8
default
 10
23.3217
 20
-3.2958
 40
3.2515
 50
25.6958
 51
86.3022
  0
ARC
  8
default
 10
-25.3733
 20
-3.2971
 40
3.2529
 50
93.7104
 51
154.2889
  0
LINE
  8
default
 10
-25.5838
 20
-0.0511
 11
23.5314
 21
-0.0511
  0
LINE
  8
default
 10
-28.4013
 20
-11.1436
 11
26.3489
 21
-11.1436
  0
LINE
  8
default
 10
26.2515
 20
-1.8860
 11
28.6272
 21
-7.7659
  0
LINE
  8
default
 10
-30.6797
 20
-7.7657
 11
-28.3041
 21
-1.8859
  0
LINE
  8
default
 10
-25.5837
 20
-0.4261
 11
23.5315
 21
-0.4261
  0
LINE
  8
default
 10
-30.3320
 20
-7.9061
 11
-27.9564
 21
-2.0263
  0
LINE
  8
default
 10
25.9038
 20
-2.0264
 11
28.2795
 21
-7.9063
  0
ARC
  8
default
 10
-28.3878
 20
-8.6782
 40
2.0918
 50
158.3420
 51
224.4712
  0
ARC
  8
default
 10
26.3354
 20
-8.6784
 40
2.0917
 50
315.5327
 51
21.6590
  0
ARC
  8
default
 10
-25.3703
 20
-3.3015
 40
2.8833
 50
94.2426
 51
153.7531
  0
ARC
  8
default
 10
23.3183
 20
-3.3005
 40
2.8823
 50
26.2326
 51
85.7580
  0
SOLID
  8
default
 10
-31.5679
 20
-0.2360
 11
-31.6302
 21
-0.2360
 12
-31.5991
 22
-0.0511
 13
-31.5991
 23
-0.0511
  0
SOLID
  8
default
 10
-31.6302
 20
-10.9586
 11
-31.5679
 21
-10.9586
 12
-31.5991
 22
-11.1436
 13
-31.5991
 23
-11.1436
  0
LINE
  8
default
 10
-31.5991
 20
-5.4585
 11
-31.5991
 21
-0.0511
  0
LINE
  8
default
 10
-31.5991
 20
-11.1436
 11
-31.5991
 21
-5.7503
  0
TEXT
  8
default
 10
-31.8201
 20
-5.6688
 40
0.1263
  1
11.09
  0
LINE
  8
default
 10
-31.7241
 20
-0.0511
 11
-25.6463
 21
-0.0511
  0
LINE
  8
default
 10
-31.7241
 20
-11.1436
 11
-28.4638
 21
-11.1436
  0
LINE
  8
default
  6
HIDDEN
 10
-25.5837
 20
-2.8236
 11
23.5315
 21
-2.8236
  0
LINE
  8
default
 10
-25.5836
 20
-3.0111
 11
23.5316
 21
-3.0111
  0
LINE
  8
default
 10
-25.5837
 20
-2.6361
 11
23.5315
 21
-2.6361
  0
LINE
  8
default
 10
-28.4013
 20
-11.1436
 11
-28.4013
 21
-10.1436
  0
LINE
  8
default
 10
-28.4013
 20
-9.1436
 11
-14.1205
 21
-9.1436
  0
LINE
  8
default
 10
12.0681
 20
-9.1436
 11
26.3489
 21
-9.1436
  0
LINE
  8
default
 10
12.0681
 20
-11.1436
 11
12.0681
 21
-9.1436
  0
LINE
  8
default
 10
12.0680
 20
-8.9561
 11
26.3488
 21
-8.9561
  0
LINE
  8
default
 10
-28.4013
 20
-8.9561
 11
-14.1205
 21
-8.9561
  0
LINE
  8
default
 10
-14.1205
 20
-8.9561
 11
12.0680
 21
-8.9561
  0
LINE
  8
default
 10
-14.1205
 20
-9.1436
 11
12.0681
 21
-9.1436
  0
LINE
  8
default
 10
-30.4610
 20
-8.9561
 11
-28.4013
 21
-8.9561
  0
LINE
  8
default
 10
-30.4271
 20
-9.1436
 11
-28.4013
 21
-9.1436
  0
LINE
  8
default
 10
26.3488
 20
-8.9561
 11
28.4085
 21
-8.9561
  0
LINE
  8
default
 10
26.3489
 20
-9.1436
 11
28.3747
 21
-9.1436
  0
LINE
  8
default
 10
23.5315
 20
-2.6361
 11
26.1501
 21
-2.6361
  0
LINE
  8
default
 10
23.5316
 20
-3.0111
 11
26.3016
 21
-3.0111
  0
LINE
  8
default
 10
-28.2027
 20
-2.6361
 11
-25.5837
 21
-2.6361
  0
LINE
  8
default
 10
-28.3542
 20
-3.0111
 11
-25.5836
 21
-3.0111
  0
LINE
  8
default
 10
-28.4638
 20
-11.1436
 11
-28.4638
 21
-9.1436
  0
LINE
  8
default
 10
26.4114
 20
-11.1436
 11
26.4114
 21
-9.1436
  0
LINE
  8
default
 10
12.0681
 20
-9.1749
 11
26.3489
 21
-9.1749
  0
LINE
  8
default
 10
-28.4012
 20
-9.1749
 11
-14.1204
 21
-9.1749
  0
LINE
  8
default
 10
-14.1205
 20
-11.1436
 11
-14.1204
 21
-9.1749
  0
LINE
  8
default
 10
-28.4013
 20
-11.1436
 11
-28.4012
 21
-9.1749
  0
ARC
  8
default
 10
-28.3842
 20
-8.6747
 40
2.4690
 50
158.3998
 51
268.1548
  0
ARC
  8
default
 10
26.3320
 20
-8.6750
 40
2.4688
 50
271.8407
 51
21.6070
  0
LINE
  8
default
 10
26.4114
 20
-10.1436
 11
28.3164
 21
-10.1436
  0
LINE
  8
default
 10
12.0681
 20
-10.1436
 11
26.3489
 21
-10.1436
  0
LINE
  8
default
 10
-14.0580
 20
-10.1436
 11
12.0056
 21
-10.1436
  0
LINE
  8
default
 10
-28.4013
 20
-10.1436
 11
-14.1204
 21
-10.1436
  0
LINE
  8
default
 10
-30.3687
 20
-10.1436
 11
-28.4638
 21
-10.1436
  0
LINE
  8
default
 10
26.3489
 20
-11.1436
 11
26.3489
 21
-9.1749
  0
LINE
  8
default
 10
-28.4638
 20
-8.9561
 11
-28.4638
 21
-3.2821
  0
LINE
  8
default
 10
-28.4638
 20
-10.1436
 11
-28.4638
 21
-9.1436
  0
LINE
  8
default
 10
-28.5576
 20
-10.1436
 11
-28.5576
 21
-9.1436
  0
LINE
  8
default
 10
26.4114
 20
-8.9561
 11
26.4114
 21
-3.2827
  0
LINE
  8
default
 10
26.4114
 20
-10.1436
 11
26.4114
 21
-9.1436
  0
LINE
  8
default
 10
26.5052
 20
-10.1436
 11
26.5052
 21
-9.1436
  0
SOLID
  8
default
 10
-25.3048
 20
1.9149
 11
-25.3048
 21
1.8538
 12
-25.4898
 22
1.8844
 13
-25.4898
 23
1.8844
  0
SOLID
  8
default
 10
-14.2429
 20
1.8538
 11
-14.2429
 21
1.9149
 12
-14.0580
 22
1.8844
 13
-14.0580
 23
1.8844
  0
LINE
  8
default
 10
-25.4898
 20
1.8844
 11
-20.4124
 21
1.8844
  0
LINE
  8
default
 10
-19.8454
 20
1.8844
 11
-14.0580
 21
1.8844
  0
TEXT
  8
default
 10
-20.3498
 20
1.8200
 40
0.1263
  1
11.43
  0
LINE
  8
default
 10
-25.4898
 20
-0.3637
 11
-25.4898
 21
2.0094
  0
LINE
  8
default
 10
-14.0580
 20
-0.3636
 11
-14.0580
 21
2.0094
  0
LINE
  8
default
 62
     1
 10
-3.0952
 20
-0.0510
 11
-1.0262
 21
-0.0510
  0
LINE
  8
default
 62
     1
 10
-1.0262
 20
-0.0510
 11
1.0428
 21
-0.0510
  0
LINE
  8
default
 10
-3.0952
 20
-10.1436
 11
-3.0952
 21
-0.4261
  0
LINE
  8
default
 10
1.0428
 20
-10.1436
 11
1.0428
 21
-0.4261
  0
LINE
  8
default
 10
0.9490
 20
-10.1436
 11
0.9490
 21
-0.4261
  0
LINE
  8
default
 10
-3.0014
 20
-10.1436
 11
-3.0014
 21
-0.4261
  0
SOLID
  8
default
 10
1.1339
 20
2.0303
 11
1.1339
 21
1.9692
 12
0.9490
 22
1.9998
 13
0.9490
 23
1.9998
  0
SOLID
  8
default
 10
11.7268
 20
1.9692
 11
11.7268
 21
2.0303
 12
11.9118
 22
1.9998
 13
11.9118
 23
1.9998
  0
LINE
  8
default
 10
0.9490
 20
1.9998
 11
6.0752
 21
1.9998
  0
LINE
  8
default
 10
6.6422
 20
1.9998
 11
11.9118
 21
1.9998
  0
TEXT
  8
default
 10
6.1378
 20
1.9354
 40
0.1263
  1
10.96
  0
LINE
  8
default
 10
0.9490
 20
-0.3636
 11
0.9490
 21
2.1248
  0
LINE
  8
default
 10
11.9118
 20
-0.3636
 11
11.9118
 21
2.1248
  0
LINE
  8
default
 10
7.4336
 20
-8.9561
 11
7.4336
 21
-0.4261
  0
LINE
  8
default
 10
5.1476
 20
-8.9561
 11
5.1476
 21
-0.4261
  0
LINE
  8
default
 10
2.8616
 20
-8.9561
 11
2.8616
 21
-0.4261
  0
LINE
  8
default
 10
7.3398
 20
-8.9561
 11
7.3398
 21
-0.4261
  0
LINE
  8
default
 10
5.0538
 20
-8.9561
 11
5.0538
 21
-0.4261
  0
LINE
  8
default
 10
2.7678
 20
-8.9561
 11
2.7678
 21
-0.4261
  0
LINE
  8
default
 10
-1.0262
 20
-10.1436
 11
-1.0262
 21
-0.4261
  0
LINE
  8
default
 10
-0.9324
 20
-10.1436
 11
-0.9324
 21
-0.4261
  0
LINE
  8
default
 10
-1.1200
 20
-10.1436
 11
-1.1200
 21
-0.4261
  0
LINE
  8
default
 10
-3.0952
 20
-8.9561
 11
-3.0952
 21
-6.7686
  0
LINE
  8
default
 10
2.7678
 20
-10.1436
 11
2.7678
 21
-8.9561
  0
LINE
  8
default
 10
5.0538
 20
-10.1436
 11
5.0538
 21
-8.9561
  0
LINE
  8
default
 10
7.3398
 20
-10.1436
 11
7.3398
 21
-8.9561
  0
LINE
  8
default
 10
2.8616
 20
-10.1436
 11
2.8616
 21
-8.9561
  0
LINE
  8
default
 10
5.1476
 20
-10.1436
 11
5.1476
 21
-8.9561
  0
LINE
  8
default
 10
7.4336
 20
-10.1436
 11
7.4336
 21
-8.9561
  0
LINE
  8
default
 10
-11.7720
 20
-10.1436
 11
-11.7720
 21
-8.9561
  0
LINE
  8
default
 10
-9.4860
 20
-10.1436
 11
-9.4860
 21
-8.9561
  0
LINE
  8
default
 10
-7.2000
 20
-10.1436
 11
-7.2000
 21
-8.9561
  0
LINE
  8
default
 10
-4.9140
 20
-10.1436
 11
-4.9140
 21
-8.9561
  0
LINE
  8
default
 10
-4.8202
 20
-10.1436
 11
-4.8202
 21
-8.9561
  0
LINE
  8
default
 10
-7.1062
 20
-10.1436
 11
-7.1062
 21
-8.9561
  0
LINE
  8
default
 10
-9.3922
 20
-10.1436
 11
-9.3922
 21
-8.9561
  0
LINE
  8
default
 10
-11.6782
 20
-10.1436
 11
-11.6782
 21
-8.9561
  0
LINE
  8
default
 10
-16.2502
 20
-10.1436
 11
-16.2502
 21
-8.9561
  0
LINE
  8
default
 10
-16.3440
 20
-10.1436
 11
-16.3440
 21
-8.9561
  0
LINE
  8
default
 10
-18.5362
 20
-10.1436
 11
-18.5362
 21
-8.9561
  0
LINE
  8
default
 10
-18.6300
 20
-10.1436
 11
-18.6300
 21
-8.9561
  0
LINE
  8
default
 10
-20.8222
 20
-10.1436
 11
-20.8222
 21
-8.9561
  0
LINE
  8
default
 10
-20.9160
 20
-10.1436
 11
-20.9160
 21
-8.9561
  0
LINE
  8
default
 62
     1
 10
-1.0262
 20
-16.1811
 11
0.8629
 21
-16.1811
  0
LINE
  8
default
 62
     1
 10
-2.9153
 20
-16.1811
 11
-1.0262
 21
-16.1811
  0
LINE
  8
default
 62
     1
 10
-1.0262
 20
-30.3040
 11
0.5480
 21
-30.3040
  0
LINE
  8
default
 62
     1
 10
-2.6004
 20
-30.3040
 11
-1.0262
 21
-30.3040
  0
LINE
  8
default
 62
     1
 10
0.5480
 20
-30.3040
 11
0.8629
 21
-16.1811
  0
LINE
  8
default
 62
     1
 10
-2.9153
 20
-16.1811
 11
-2.6004
 21
-30.3040
  0
LINE
  8
default
 62
     1
 10
0.8628
 20
-16.1810
 11
1.0428
 21
-0.0510
  0
LINE
  8
default
 62
     1
 10
-3.0952
 20
-0.0510
 11
-2.9153
 21
-16.1811
  0
LINE
  8
default
 62
     1
 10
0.4537
 20
-34.5319
 11
0.5480
 21
-30.3040
  0
LINE
  8
default
 62
     1
 10
-2.6004
 20
-30.3040
 11
-2.5061
 21
-34.5319
  0
LINE
  8
default
 62
     1
 10
-2.5061
 20
-34.5319
 11
0.4537
 21
-34.5319
  0
LINE
  8
default
 62
     1
 10
-1.0262
 20
-37.5652
 11
-1.0262
 21
-36.8006
  0
LINE
  8
default
 62
     5
 10
-8.9872
 20
-36.8006
 11
-1.0262
 21
-36.8006
  0
LINE
  8
default
 62
     5
 10
-1.0262
 20
-36.8006
 11
6.9348
 21
-36.8006
  0
ARC
  8
default
 10
6.3836
 20
-35.5703
 40
1.3480
 50
294.1330
 51
30.0117
  0
ARC
  8
default
 10
-8.4356
 20
-35.5703
 40
1.3482
 50
149.9984
 51
245.8533
  0
ARC
  8
default
 10
-7.9056
 20
-32.8226
 40
0.6997
 50
89.6560
 51
155.4571
  0
ARC
  8
default
 10
5.8537
 20
-32.8217
 40
0.6987
 50
24.4887
 51
90.3773
  0
LINE
  8
default
 10
-1.0261
 20
-32.4980
 11
5.8492
 21
-32.4980
  0
LINE
  8
default
 10
-7.9013
 20
-32.4980
 11
-1.0261
 21
-32.4980
  0
LINE
  8
default
 10
-8.1998
 20
-32.6854
 11
-7.9013
 21
-32.4980
  0
LINE
  8
default
 10
5.8491
 20
-32.4980
 11
6.1473
 21
-32.6856
  0
LINE
  8
default
 10
-1.0262
 20
-34.5319
 11
7.3873
 21
-34.5319
  0
LINE
  8
default
 10
-9.4396
 20
-34.5319
 11
-1.0262
 21
-34.5319
  0
LINE
  8
default
 10
-9.4395
 20
-34.5619
 11
-1.0261
 21
-34.5619
  0
LINE
  8
default
 10
-1.0261
 20
-34.5619
 11
7.3874
 21
-34.5619
  0
LINE
  8
default
 10
-9.4394
 20
-34.8119
 11
-1.0260
 21
-34.8119
  0
LINE
  8
default
 10
-1.0260
 20
-34.8119
 11
7.3875
 21
-34.8119
  0
LINE
  8
default
 10
7.3875
 20
-34.8119
 11
7.5130
 21
-34.8119
  0
LINE
  8
default
 10
-9.5653
 20
-34.8119
 11
-9.1542
 21
-34.8119
  0
LINE
  8
default
 10
-9.2608
 20
-35.0496
 11
-9.1542
 21
-34.8119
  0
LINE
  8
default
 10
-8.9163
 20
-34.2819
 11
-8.1997
 21
-32.6854
  0
LINE
  8
default
 10
7.1019
 20
-34.8119
 11
7.2085
 21
-35.0495
  0
LINE
  8
default
 10
6.1472
 20
-32.6856
 11
6.8639
 21
-34.2819
  0
LINE
  8
default
 10
-1.0262
 20
-34.2819
 11
7.2750
 21
-34.2819
  0
LINE
  8
default
 10
-9.3274
 20
-34.2819
 11
-1.0262
 21
-34.2819
  0
LINE
  8
default
 10
-9.4530
 20
-34.5619
 11
-9.4395
 21
-34.5619
  0
LINE
  8
default
 10
-9.6031
 20
-34.8960
 11
-9.4530
 21
-34.5619
  0
LINE
  8
default
 10
-9.4396
 20
-34.5319
 11
-8.5419
 21
-32.5320
  0
LINE
  8
default
 10
7.3874
 20
-34.5619
 11
7.4008
 21
-34.5619
  0
LINE
  8
default
 10
7.4008
 20
-34.5619
 11
7.5508
 21
-34.8959
  0
LINE
  8
default
 10
6.4894
 20
-32.5321
 11
7.3873
 21
-34.5319
  0
ARC
  8
default
 10
6.3825
 20
-35.5684
 40
0.9755
 50
298.5092
 51
32.1324
  0
ARC
  8
default
 10
-8.4352
 20
-35.5685
 40
0.9751
 50
147.8551
 51
241.5241
  0
LINE
  8
default
 10
-7.9013
 20
-34.2819
 11
-7.9013
 21
-32.4980
  0
LINE
  8
default
 10
5.8491
 20
-34.2819
 11
5.8491
 21
-32.4980
  0
LINE
  8
default
 10
5.8491
 20
-36.4256
 11
5.8491
 21
-34.8119
  0
LINE
  8
default
 10
-7.9013
 20
-36.4256
 11
-7.9013
 21
-34.8119
  0
LINE
  8
default
 10
-7.8075
 20
-34.2819
 11
-7.8075
 21
-32.4980
  0
LINE
  8
default
 10
-7.8075
 20
-36.4256
 11
-7.8075
 21
-34.8119
  0
LINE
  8
default
 10
5.7553
 20
-36.4256
 11
5.7553
 21
-34.8119
  0
LINE
  8
default
 10
5.7553
 20
-34.2819
 11
5.7553
 21
-32.4980
  0
LINE
  8
default
 62
     5
 10
6.4894
 20
-32.5321
 11
6.4894
 21
-31.8672
  0
LINE
  8
default
 62
     5
 10
5.8491
 20
-32.1230
 11
5.8491
 21
-31.8405
  0
SOLID
  8
default
 10
6.0340
 20
-31.8792
 11
6.0340
 21
-31.9403
 12
5.8491
 22
-31.9098
 13
5.8491
 23
-31.9098
  0
SOLID
  8
default
 10
6.3044
 20
-31.9403
 11
6.3044
 21
-31.8792
 12
6.4894
 22
-31.9098
 13
6.4894
 23
-31.9098
  0
LINE
  8
default
 10
5.8491
 20
-31.9098
 11
5.9535
 21
-31.9098
  0
LINE
  8
default
 10
6.3255
 20
-31.9098
 11
6.4894
 21
-31.9098
  0
TEXT
  8
default
 10
6.0161
 20
-31.9742
 40
0.1263
  1
.64
  0
ARC
  8
default
 10
1.9920
 20
-34.8194
 40
2.7601
 50
102.3302
 51
122.7470
  0
ARC
  8
default
 10
-4.0432
 20
-34.8166
 40
2.7570
 50
57.2432
 51
77.6833
  0
ARC
  8
default
 10
1.2563
 20
-35.6682
 40
1.1417
 50
221.5556
 51
277.3578
  0
ARC
  8
default
 10
-3.3089
 20
-35.6677
 40
1.1422
 50
262.6560
 51
318.4323
  0
LINE
  8
default
 10
-2.4544
 20
-36.4255
 11
-1.6320
 21
-34.8118
  0
LINE
  8
default
 10
-0.4202
 20
-34.8119
 11
0.4020
 21
-36.4255
  0
LINE
  8
default
 10
-3.4550
 20
-36.4256
 11
-3.4550
 21
-34.8119
  0
LINE
  8
default
 10
1.4026
 20
-36.4256
 11
1.4026
 21
-34.8119
  0
LINE
  8
default
 10
1.4026
 20
-34.2819
 11
1.4026
 21
-32.4980
  0
LINE
  8
default
 10
-3.4550
 20
-34.2819
 11
-3.4550
 21
-32.4980
  0
LINE
  8
default
 10
-3.5488
 20
-34.2819
 11
-3.5488
 21
-32.4980
  0
LINE
  8
default
 10
-3.5488
 20
-36.4256
 11
-3.5488
 21
-34.8119
  0
LINE
  8
default
 10
1.4964
 20
-36.4256
 11
1.4964
 21
-34.8119
  0
LINE
  8
default
 10
1.4964
 20
-34.2819
 11
1.4964
 21
-32.4980
  0
LINE
  8
default
 10
-8.9001
 20
-36.4256
 11
-2.4544
 21
-36.4256
  0
LINE
  8
default
 10
0.4020
 20
-36.4256
 11
6.8481
 21
-36.4256
  0
LINE
  8
default
 10
1.4026
 20
-32.1230
 11
5.8491
 21
-32.1230
  0
LINE
  8
default
 10
-7.9016
 20
-32.1231
 11
-3.4551
 21
-32.1231
  0
LINE
  8
default
 10
0.8906
 20
-33.3402
 11
3.8610
 21
-30.3943
  0
LINE
  8
default
 10
3.8610
 20
-30.3943
 11
4.0270
 21
-30.3943
  0
TEXT
  8
default
 10
4.0895
 20
-30.4587
 40
0.1263
  1
1/4" Balsa Sheet
  0
LINE
  8
default
 10
0.7383
 20
-36.1068
 11
2.3631
 21
-37.7207
  0
LINE
  8
default
 10
2.3631
 20
-37.7207
 11
2.7068
 21
-37.7207
  0
TEXT
  8
default
 10
2.7693
 20
-37.7851
 40
0.1263
  1
1.4" Balsa Sheet
  0
SOLID
  8
default
 10
-7.7163
 20
-30.7992
 11
-7.7163
 21
-30.8603
 12
-7.9013
 22
-30.8298
 13
-7.9013
 23
-30.8298
  0
SOLID
  8
default
 10
-3.6399
 20
-30.8603
 11
-3.6399
 21
-30.7992
 12
-3.4550
 22
-30.8298
 13
-3.4550
 23
-30.8298
  0
LINE
  8
default
 10
-7.9013
 20
-30.8298
 11
-6.1187
 21
-30.8298
  0
LINE
  8
default
 10
-5.6573
 20
-30.8298
 11
-3.4550
 21
-30.8298
  0
TEXT
  8
default
 10
-6.0561
 20
-30.8942
 40
0.1263
  1
4.45
  0
LINE
  8
default
 10
-3.4550
 20
-32.4355
 11
-3.4550
 21
-30.7048
  0
LINE
  8
default
 10
-7.9013
 20
-32.4355
 11
-7.9013
 21
-30.7048
  0
LINE
  8
default
 10
-4.9383
 20
-34.2819
 11
-4.9383
 21
-32.4980
  0
LINE
  8
default
 10
-6.4216
 20
-34.2819
 11
-6.4216
 21
-32.4980
  0
LINE
  8
default
 10
2.8859
 20
-34.2819
 11
2.8859
 21
-32.4980
  0
LINE
  8
default
 10
4.3692
 20
-34.2819
 11
4.3692
 21
-32.4980
  0
LINE
  8
default
 10
2.8859
 20
-36.4256
 11
2.8859
 21
-34.8119
  0
LINE
  8
default
 10
4.3692
 20
-36.4256
 11
4.3692
 21
-34.8119
  0
LINE
  8
default
 10
-4.9383
 20
-36.4256
 11
-4.9383
 21
-34.8119
  0
LINE
  8
default
 10
-6.4216
 20
-36.4256
 11
-6.4216
 21
-34.8119
  0
LINE
  8
default
 10
-5.0321
 20
-36.4256
 11
-5.0321
 21
-34.8119
  0
LINE
  8
default
 10
-6.5154
 20
-36.4256
 11
-6.5154
 21
-34.8119
  0
LINE
  8
default
 10
-5.0321
 20
-34.2819
 11
-5.0321
 21
-32.4980
  0
LINE
  8
default
 10
-6.5154
 20
-34.2819
 11
-6.5154
 21
-32.4980
  0
LINE
  8
default
 10
2.9797
 20
-34.2819
 11
2.9797
 21
-32.4980
  0
LINE
  8
default
 10
4.4630
 20
-34.2819
 11
4.4630
 21
-32.4980
  0
LINE
  8
default
 10
2.9797
 20
-36.4256
 11
2.9797
 21
-34.8119
  0
LINE
  8
default
 10
4.4630
 20
-36.4256
 11
4.4630
 21
-34.8119
  0
LINE
  8
default
 62
     1
 10
-2.5061
 20
-34.5619
 11
-1.0261
 21
-34.5619
  0
LINE
  8
default
 62
     1
 10
-1.0261
 20
-34.5619
 11
0.4539
 21
-34.5619
  0
LINE
  8
default
  6
HIDDEN
 62
     1
 10
-2.5061
 20
-35.3035
 11
-2.5061
 21
-34.5619
  0
LINE
  8
default
  6
HIDDEN
 62
     1
 10
0.4539
 20
-35.3035
 11
0.4539
 21
-34.5619
  0
LINE
  8
default
  6
HIDDEN
 62
     1
 10
0.3601
 20
-35.3035
 11
0.3601
 21
-34.6557
  0
LINE
  8
default
  6
HIDDEN
 62
     1
 10
-1.0260
 20
-34.6557
 11
0.3601
 21
-34.6557
  0
LINE
  8
default
  6
HIDDEN
 62
     1
 10
-2.4123
 20
-35.3035
 11
-2.4123
 21
-34.6557
  0
LINE
  8
default
  6
HIDDEN
 62
     1
 10
-2.4123
 20
-34.6557
 11
-1.0260
 21
-34.6557
  0
LINE
  8
default
  6
HIDDEN
 62
     1
 10
-2.5061
 20
-35.3035
 11
-2.4123
 21
-35.3035
  0
LINE
  8
default
  6
HIDDEN
 62
     1
 10
0.3601
 20
-35.3035
 11
0.4539
 21
-35.3035
  0
LINE
  8
default
 10
0.3601
 20
-35.3035
 11
0.6434
 21
-38.1275
  0
LINE
  8
default
 10
0.6434
 20
-38.1275
 11
0.9765
 21
-38.1275
  0
TEXT
  8
default
 10
1.0390
 20
-38.1919
 40
0.1263
  1
3/32" Musicwire
  0
LINE
  8
default
 62
     1
 10
-1.0262
 20
-37.5652
 11
-1.0262
 21
-31.7631
  0
LINE
  8
default
 62
     1
 10
-0.9012
 20
-37.5652
 11
-0.9012
 21
-31.7631
  0
LINE
  8
default
 62
     1
 10
-1.1512
 20
-37.5652
 11
-1.1512
 21
-31.7631
  0
LINE
  8
default
 62
     1
 10
-1.1512
 20
-37.5652
 11
-0.9012
 21
-37.5652
  0
LINE
  8
default
 62
     1
 10
-1.1512
 20
-31.7631
 11
-0.9012
 21
-31.7631
  0
LINE
  8
default
 62
     1
 10
-1.0261
 20
1.3853
 11
2.3472
 21
1.3853
  0
LINE
  8
default
 62
     1
 10
-4.3994
 20
1.3853
 11
-1.0261
 21
1.3853
  0
ARC
  8
default
 10
-0.2595
 20
2.4421
 40
2.8128
 50
297.5808
 51
337.9315
  0
ARC
  8
default
 10
-1.7938
 20
2.4411
 40
2.8114
 50
202.0561
 51
242.4268
  0
LINE
  8
default
 62
     1
 10
-4.3994
 20
3.4490
 11
-1.0261
 21
3.4490
  0
LINE
  8
default
 62
     1
 10
-1.0261
 20
3.4490
 11
2.3472
 21
3.4490
  0
ARC
  8
default
 10
1.6054
 20
3.2072
 40
0.7801
 50
18.0517
 51
71.9576
  0
ARC
  8
default
 10
-3.6574
 20
3.2070
 40
0.7804
 50
108.0658
 51
161.9412
  0
LINE
  8
default
 10
-3.8994
 20
3.9489
 11
1.8470
 21
3.9489
  0
LINE
  8
default
 10
-4.3993
 20
1.3854
 11
-4.3993
 21
3.4489
  0
LINE
  8
default
 10
2.3470
 20
1.3853
 11
2.3470
 21
3.4489
  0
TEXT
  8
default
 62
     5
 10
-9.2167
 20
9.5925
 40
1.5158
  1
Fokker Eindecker III
  7
COMPLEX
  0
SOLID
  8
default
 62
     1
 10
7.1959
 20
3.7640
 11
7.1336
 21
3.7640
 12
7.1648
 22
3.9490
 13
7.1648
 23
3.9490
  0
SOLID
  8
default
 62
     1
 10
7.1336
 20
-37.3802
 11
7.1959
 21
-37.3802
 12
7.1648
 22
-37.5652
 13
7.1648
 23
-37.5652
  0
LINE
  8
default
 62
     1
 10
7.1648
 20
-16.9753
 11
7.1648
 21
3.9490
  0
LINE
  8
default
 62
     1
 10
7.1648
 20
-37.5652
 11
7.1648
 21
-17.2671
  0
TEXT
  8
default
 62
     1
 10
6.9477
 20
-17.1856
 40
0.1263
  1
41.51
  0
LINE
  8
default
 62
     1
 10
-0.8387
 20
-37.5652
 11
7.2898
 21
-37.5652
  0
LINE
  8
default
 62
     1
 10
-0.9637
 20
3.9490
 11
7.2898
 21
3.9490
  0
LINE
  8
default
  6
HIDDEN
 10
-30.4610
 20
-52.9111
 11
11.0490
 21
-52.9111
  0
SOLID
  8
default
 62
     1
 10
-4.2695
 20
-32.3080
 11
-4.3318
 21
-32.3080
 12
-4.3007
 22
-32.1231
 13
-4.3007
 23
-32.1231
  0
SOLID
  8
default
 62
     1
 10
-4.3318
 20
-37.3802
 11
-4.2695
 21
-37.3802
 12
-4.3007
 22
-37.5652
 13
-4.3007
 23
-37.5652
  0
LINE
  8
default
 62
     1
 10
-4.3007
 20
-35.1999
 11
-4.3007
 21
-32.1231
  0
LINE
  8
default
 62
     1
 10
-4.3007
 20
-37.5652
 11
-4.3007
 21
-35.4917
  0
TEXT
  8
default
 62
     1
 10
-4.4655
 20
-35.4102
 40
0.1263
  1
5.44
  0
LINE
  8
default
 62
     1
 10
-4.4257
 20
-37.5652
 11
-1.2137
 21
-37.5652
  0
SOLID
  8
default
 62
     1
 10
-0.4638
 20
-31.9480
 11
-0.5261
 21
-31.9480
 12
-0.4950
 22
-31.7631
 13
-0.4950
 23
-31.7631
  0
SOLID
  8
default
 62
     1
 10
-0.5261
 20
-37.3802
 11
-0.4638
 21
-37.3802
 12
-0.4950
 22
-37.5652
 13
-0.4950
 23
-37.5652
  0
LINE
  8
default
 62
     1
 10
-0.4950
 20
-35.7137
 11
-0.4950
 21
-31.7631
  0
LINE
  8
default
 62
     1
 10
-0.4950
 20
-37.5652
 11
-0.4950
 21
-36.0055
  0
TEXT
  8
default
 62
     1
 10
-0.6598
 20
-35.9240
 40
0.1263
  1
5.80
  0
LINE
  8
default
 62
     1
 10
-0.8387
 20
-31.7631
 11
-0.3700
 21
-31.7631
  0
LINE
  8
default
 62
     1
 10
-0.8387
 20
-37.5652
 11
-0.3700
 21
-37.5652
  0
SOLID
  8
default
 62
     1
 10
-5.9101
 20
-32.3080
 11
-5.9724
 21
-32.3080
 12
-5.9413
 22
-32.1231
 13
-5.9413
 23
-32.1231
  0
SOLID
  8
default
 62
     1
 10
-5.9724
 20
-36.6156
 11
-5.9101
 21
-36.6156
 12
-5.9413
 22
-36.8006
 13
-5.9413
 23
-36.8006
  0
LINE
  8
default
 62
     1
 10
-5.9413
 20
-35.2155
 11
-5.9413
 21
-32.1231
  0
LINE
  8
default
 62
     1
 10
-5.9413
 20
-36.8006
 11
-5.9413
 21
-35.5073
  0
TEXT
  8
default
 62
     1
 10
-6.1090
 20
-35.4258
 40
0.1263
  1
4.68
  0
SOLID
  8
default
 62
     1
 10
-7.2095
 20
-32.3080
 11
-7.2718
 21
-32.3080
 12
-7.2407
 22
-32.1231
 13
-7.2407
 23
-32.1231
  0
SOLID
  8
default
 62
     1
 10
-7.2718
 20
-34.3469
 11
-7.2095
 21
-34.3469
 12
-7.2407
 22
-34.5319
 13
-7.2407
 23
-34.5319
  0
LINE
  8
default
 62
     1
 10
-7.2407
 20
-33.3939
 11
-7.2407
 21
-32.1231
  0
LINE
  8
default
 62
     1
 10
-7.2407
 20
-34.5319
 11
-7.2407
 21
-33.6857
  0
TEXT
  8
default
 62
     1
 10
-7.4070
 20
-33.6042
 40
0.1263
  1
2.41
  0
LINE
  8
default
  6
HIDDEN
 62
     1
 10
5.6090
 20
-52.9111
 11
8.0190
 21
-52.9111
  0
LINE
  8
default
  6
HIDDEN
 62
     1
 10
5.6089
 20
-52.6611
 11
8.0189
 21
-52.6611
  0
LINE
  8
default
 10
8.0189
 20
-52.9111
 11
8.0189
 21
-52.6611
  0
LINE
  8
default
 10
8.0502
 20
-52.9111
 11
8.0502
 21
-52.6611
  0
LINE
  8
default
 10
8.0502
 20
-52.6611
 11
10.2890
 21
-52.6611
  0
LINE
  8
default
 10
10.2890
 20
-52.9111
 11
10.2890
 21
-52.6611
  0
LINE
  8
default
 10
5.6089
 20
-52.9111
 11
5.6089
 21
-52.6611
  0
LINE
  8
default
 10
5.6089
 20
-52.6611
 11
8.0189
 21
-52.6611
  0
SOLID
  8
default
 62
     1
 10
4.6539
 20
3.7639
 11
4.5916
 21
3.7639
 12
4.6228
 22
3.9489
 13
4.6228
 23
3.9489
  0
SOLID
  8
default
 62
     1
 10
4.5916
 20
-15.9960
 11
4.6539
 21
-15.9960
 12
4.6228
 22
-16.1810
 13
4.6228
 23
-16.1810
  0
LINE
  8
default
 62
     1
 10
4.6228
 20
-13.7043
 11
4.6228
 21
3.9489
  0
LINE
  8
default
 62
     1
 10
4.6228
 20
-16.1810
 11
4.6228
 21
-13.9961
  0
TEXT
  8
default
 62
     1
 10
4.4073
 20
-13.9146
 40
0.1263
  1
20.13
  0
LINE
  8
default
 62
     1
 10
0.9253
 20
-16.1810
 11
4.7478
 21
-16.1810
  0
LINE
  8
default
 62
     1
 10
1.9095
 20
3.9489
 11
4.7478
 21
3.9489
  0
SOLID
  8
default
 62
     1
 10
4.3003
 20
-16.3659
 11
4.2380
 21
-16.3659
 12
4.2692
 22
-16.1810
 13
4.2692
 23
-16.1810
  0
SOLID
  8
default
 62
     1
 10
4.2380
 20
-30.1190
 11
4.3003
 21
-30.1190
 12
4.2692
 22
-30.3040
 13
4.2692
 23
-30.3040
  0
LINE
  8
default
 62
     1
 10
4.2692
 20
-22.7552
 11
4.2692
 21
-16.1810
  0
LINE
  8
default
 62
     1
 10
4.2692
 20
-30.3040
 11
4.2692
 21
-23.0470
  0
TEXT
  8
default
 62
     1
 10
4.0490
 20
-22.9655
 40
0.1263
  1
14.12
  0
LINE
  8
default
 62
     1
 10
0.9253
 20
-16.1810
 11
4.3942
 21
-16.1810
  0
LINE
  8
default
 62
     1
 10
0.6105
 20
-30.3040
 11
4.3942
 21
-30.3040
  0
LINE
  8
default
 10
-30.4610
 20
-52.9111
 11
-30.4610
 21
-50.5681
  0
LINE
  8
default
 10
-10.3309
 20
-54.9801
 11
3.7890
 21
-53.5858
  0
LINE
  8
default
 10
-10.3310
 20
-50.8421
 11
3.7890
 21
-52.1015
  0
LINE
  8
default
 10
-13.3207
 20
-50.5754
 11
-10.3310
 21
-50.8421
  0
LINE
  8
default
 10
-17.7140
 20
-55.7091
 11
-10.3309
 21
-54.9801
  0
LINE
  8
default
 10
-24.6337
 20
-55.6998
 11
-17.7140
 21
-55.6998
  0
LINE
  8
default
 62
     1
 10
-24.6337
 20
-50.5755
 11
-21.5752
 21
-50.5755
  0
LINE
  8
default
 10
-30.4610
 20
-50.5754
 11
-13.3207
 21
-50.5754
  0
SOLID
  8
default
 62
     1
 10
-5.6697
 20
3.7639
 11
-5.7320
 21
3.7639
 12
-5.7009
 22
3.9489
 13
-5.7009
 23
3.9489
  0
SOLID
  8
default
 62
     1
 10
-5.7320
 20
1.5702
 11
-5.6697
 21
1.5702
 12
-5.7009
 22
1.3853
 13
-5.7009
 23
1.3853
  0
LINE
  8
default
 62
     1
 10
-5.7009
 20
2.9106
 11
-5.7009
 21
3.9489
  0
LINE
  8
default
 62
     1
 10
-5.7009
 20
1.3853
 11
-5.7009
 21
2.6188
  0
TEXT
  8
default
 62
     1
 10
-5.8671
 20
2.7003
 40
0.1263
  1
2.56
  0
LINE
  8
default
 62
     1
 10
-5.8259
 20
1.3853
 11
2.2845
 21
1.3853
  0
LINE
  8
default
 62
     1
 10
-5.8259
 20
3.9489
 11
-3.9619
 21
3.9489
  0
LINE
  8
default
 10
-27.9010
 20
-54.8002
 11
-27.9010
 21
-49.5410
  0
ARC
  8
default
 10
-23.5445
 20
-45.3609
 40
10.3961
 50
245.2256
 51
263.9866
  0
ARC
  8
default
 10
-28.6779
 20
-38.1643
 40
16.6539
 50
272.6738
 51
283.6109
  0
LINE
  8
default
 62
     5
 10
-24.8367
 20
-54.3691
 11
-24.6806
 21
-54.3691
  0
LINE
  8
default
 10
-24.6805
 20
-55.6947
 11
-24.6805
 21
-49.5410
  0
LINE
  8
default
 10
-24.6805
 20
-49.5410
 11
-24.5555
 21
-49.5410
  0
ARC
  8
default
 10
-29.8527
 20
-50.1492
 40
0.6177
 50
100.0891
 51
169.9200
  0
LINE
  8
default
 10
-29.9609
 20
-49.5411
 11
-24.5555
 21
-49.5411
  0
ARC
  8
default
 10
-29.7006
 20
-54.0398
 40
0.8036
 50
198.9017
 51
251.0983
  0
LINE
  8
default
 10
-29.9609
 20
-54.8000
 11
-27.9010
 21
-54.8000
  0
LINE
  8
default
 10
-30.4608
 20
-54.3001
 11
-30.4608
 21
-50.0411
  0
LINE
  8
default
 10
-24.6806
 20
-54.3691
 11
-24.4306
 21
-54.3691
  0
SOLID
  8
default
 62
     1
 10
-6.8439
 20
3.7639
 11
-6.9062
 21
3.7639
 12
-6.8751
 22
3.9489
 13
-6.8751
 23
3.9489
  0
SOLID
  8
default
 62
     1
 10
-6.9062
 20
0.1338
 11
-6.8439
 21
0.1338
 12
-6.8751
 22
-0.0511
 13
-6.8751
 23
-0.0511
  0
LINE
  8
default
 62
     1
 10
-6.8751
 20
2.0671
 11
-6.8751
 21
3.9489
  0
LINE
  8
default
 62
     1
 10
-6.8751
 20
-0.0511
 11
-6.8751
 21
1.7753
  0
TEXT
  8
default
 62
     1
 10
-7.0425
 20
1.8568
 40
0.1263
  1
4.00
  0
LINE
  8
default
 62
     1
 10
-7.0001
 20
3.9489
 11
-3.9619
 21
3.9489
  0
LINE
  8
default
 62
     6
 10
-26.4608
 20
-54.3001
 11
-26.4608
 21
-50.0411
  0
LINE
  8
default
 62
     6
 10
-26.7108
 20
-54.3001
 11
-26.7108
 21
-50.0411
  0
LINE
  8
default
  6
HIDDEN
 62
     6
 10
-29.9608
 20
-49.6349
 11
-24.5554
 21
-49.6349
  0
LINE
  8
default
  6
HIDDEN
 62
     6
 10
-24.6337
 20
-55.6060
 11
-17.7140
 21
-55.6060
  0
LINE
  8
default
  6
HIDDEN
 62
     1
 10
-15.3708
 20
-52.9111
 11
-15.3708
 21
-51.0444
  0
LINE
  8
default
  6
HIDDEN
 62
     1
 10
-15.3708
 20
-55.1211
 11
-15.3708
 21
-52.9111
  0
LINE
  8
default
  6
HIDDEN
 62
     1
 10
-30.4609
 20
-50.6692
 11
-13.3206
 21
-50.6692
  0
LINE
  8
default
 62
     1
 10
-17.7229
 20
-55.6064
 11
-13.3535
 21
-55.1842
  0
LINE
  8
default
 62
     1
 10
-15.3708
 20
-51.0444
 11
-15.3708
 21
-50.6692
  0
LINE
  8
default
 62
     1
 10
-15.3708
 20
-55.3791
 11
-15.3708
 21
-50.6692
  0
LINE
  8
default
 62
     1
 10
-15.2458
 20
-55.3791
 11
-15.2458
 21
-50.6692
  0
LINE
  8
default
 62
     1
 10
-13.3206
 20
-55.1810
 11
-13.3206
 21
-50.6692
  0
LINE
  8
default
 62
     1
 10
-13.4456
 20
-55.1810
 11
-13.4456
 21
-50.6692
  0
LINE
  8
default
 62
     1
 10
-13.3206
 20
-55.2753
 11
-13.3206
 21
-55.1810
  0
LINE
  8
default
 62
     1
 10
-17.7229
 20
-55.6064
 11
-17.7229
 21
-52.9112
  0
LINE
  8
default
 62
     1
 10
-17.5979
 20
-55.6064
 11
-17.5979
 21
-52.9112
  0
LINE
  8
default
 10
-24.5555
 20
-55.6060
 11
-24.5555
 21
-49.5410
  0
LINE
  8
default
 10
-24.4306
 20
-55.6060
 11
-24.4306
 21
-54.3691
  0
LINE
  8
default
  6
HIDDEN
 62
     1
 10
-13.3429
 20
-50.8244
 11
-10.3532
 21
-51.0911
  0
LINE
  8
default
  6
HIDDEN
 62
     1
 10
-10.3532
 20
-51.0911
 11
3.7668
 21
-52.3505
  0
LINE
  8
default
  6
HIDDEN
 62
     1
 10
-10.3554
 20
-54.7313
 11
3.7645
 21
-53.3370
  0
LINE
  8
default
  6
HIDDEN
 62
     1
 10
-13.3206
 20
-55.0240
 11
-10.3554
 21
-54.7313
  0
SOLID
  8
default
 62
     1
 10
-1.7978
 20
-34.7168
 11
-1.8601
 21
-34.7168
 12
-1.8290
 22
-34.5319
 13
-1.8290
 23
-34.5319
  0
SOLID
  8
default
 62
     1
 10
-1.8601
 20
-37.3802
 11
-1.7978
 21
-37.3802
 12
-1.8290
 22
-37.5652
 13
-1.8290
 23
-37.5652
  0
LINE
  8
default
 62
     1
 10
-1.8290
 20
-36.1861
 11
-1.8290
 21
-34.5319
  0
LINE
  8
default
 62
     1
 10
-1.8290
 20
-37.5652
 11
-1.8290
 21
-36.4779
  0
TEXT
  8
default
 62
     1
 10
-1.9940
 20
-36.3964
 40
0.1263
  1
3.03
  0
LINE
  8
default
 62
     1
 10
-1.9540
 20
-37.5652
 11
-1.2137
 21
-37.5652
  0
LINE
  8
default
 10
3.7890
 20
-53.5858
 11
8.0189
 21
-53.1681
  0
LINE
  8
default
 10
8.0188
 20
-53.1681
 11
8.0188
 21
-52.4787
  0
LINE
  8
default
  6
HIDDEN
 62
     1
 10
3.7644
 20
-53.3370
 11
7.9943
 21
-52.9193
  0
CIRCLE
  8
default
 10
-25.7482
 20
-60.4224
 40
1.8891
  0
CIRCLE
  8
default
 10
-25.7482
 20
-60.4224
 40
1.3943
  0
LINE
  8
default
 62
     1
 10
-25.7482
 20
-60.4224
 11
-25.7482
 21
-60.2974
  0
LINE
  8
default
 62
     1
 10
-25.7482
 20
-60.5474
 11
-25.7482
 21
-60.4224
  0
LINE
  8
default
 62
     1
 10
-25.8732
 20
-60.4224
 11
-25.7482
 21
-60.4224
  0
LINE
  8
default
 62
     1
 10
-25.7482
 20
-60.4224
 11
-25.6232
 21
-60.4224
  0
CIRCLE
  8
default
 10
-25.7482
 20
-60.4224
 40
0.0781
  0
LINE
  8
default
 62
     1
 10
-25.6717
 20
-60.4382
 11
-24.6805
 21
-55.6947
  0
LINE
  8
default
 62
     1
 10
-25.8246
 20
-60.4062
 11
-24.8334
 21
-55.6627
  0
LINE
  8
default
 62
     1
 10
-26.4608
 20
-52.9111
 11
-26.4608
 21
-49.6349
  0
LINE
  8
default
 62
     1
 10
-26.7108
 20
-52.9111
 11
-26.7108
 21
-49.6349
  0
LINE
  8
default
 62
     1
 10
-26.4608
 20
-54.6699
 11
-26.4608
 21
-54.3001
  0
LINE
  8
default
 62
     1
 10
-26.7108
 20
-54.7016
 11
-26.7108
 21
-54.3001
  0
LINE
  8
default
 10
-27.9010
 20
-54.3691
 11
-26.7108
 21
-54.3691
  0
LINE
  8
default
 10
-26.4608
 20
-54.3691
 11
-24.6805
 21
-54.3691
  0
LINE
  8
default
 62
     1
 10
-31.6111
 20
-53.4216
 11
-27.5451
 21
-54.5792
  0
LINE
  8
default
 62
     1
 10
-31.8692
 20
-53.4216
 11
-31.6111
 21
-53.4216
  0
TEXT
  8
default
 62
     1
 10
-32.6763
 20
-53.4860
 40
0.1263
  1
Balsa Fill
  0
LINE
  8
default
 62
     1
 10
-28.4026
 20
-56.5888
 11
-25.9212
 21
-55.0961
  0
LINE
  8
default
 62
     1
 10
-29.3899
 20
-56.5888
 11
-28.4026
 21
-56.5888
  0
TEXT
  8
default
 62
     1
 10
-30.1970
 20
-56.6532
 40
0.1263
  1
Balsa Fill
  0
LINE
  8
default
 10
8.0189
 20
-53.1681
 11
8.0189
 21
-52.9111
  0
LINE
  8
default
 10
8.0502
 20
-53.1682
 11
8.0502
 21
-52.9112
  0
LINE
  8
default
 10
8.0502
 20
-54.1256
 11
8.0502
 21
-52.9112
  0
ARC
  8
default
 10
8.2517
 20
-51.3163
 40
2.8164
 50
265.8992
 51
95.2397
  0
ARC
  8
default
 10
6.9125
 20
-50.7121
 40
1.6650
 50
121.7894
 51
261.0819
  0
ARC
  8
default
 10
8.5862
 20
-52.8247
 40
4.3534
 50
97.8116
 51
125.8691
  0
LINE
  8
default
 10
8.0188
 20
-52.4787
 11
8.0188
 21
-48.5095
  0
LINE
  8
default
 10
8.0488
 20
-52.4787
 11
8.0488
 21
-48.5095
  0
LINE
  8
default
 10
8.0488
 20
-52.6611
 11
8.0488
 21
-52.4787
  0
LINE
  8
default
 10
5.6089
 20
-52.9111
 11
8.0189
 21
-52.9111
  0
LINE
  8
default
 10
8.0502
 20
-52.9111
 11
10.2890
 21
-52.9111
  0
LINE
  8
default
 10
6.6544
 20
-52.6080
 11
6.6544
 21
-52.3569
  0
LINE
  8
default
 10
6.6544
 20
-52.6611
 11
6.6544
 21
-52.6080
  0
LINE
  8
default
 10
3.7890
 20
-52.1015
 11
6.6544
 21
-52.3569
  0
LINE
  8
default
  6
HIDDEN
 62
     1
 10
3.7667
 20
-52.3505
 11
6.6544
 21
-52.6080
  0
LINE
  8
default
 10
5.6089
 20
-52.9111
 11
5.6089
 21
-52.2637
  0
LINE
  8
default
 10
5.6167
 20
-53.4053
 11
5.6167
 21
-52.3074
  0
LINE
  8
default
 10
5.4917
 20
-53.4053
 11
5.4917
 21
-52.3074
  0
LINE
  8
default
 62
     1
 10
9.7869
 20
-49.5217
 11
12.3231
 21
-48.5659
  0
LINE
  8
default
 62
     1
 10
12.3231
 20
-48.5659
 11
13.2384
 21
-48.5659
  0
TEXT
  8
default
 62
     1
 10
13.3009
 20
-48.6303
 40
0.1263
  1
1/4" Sheet
  0
LINE
  8
default
 10
8.0189
 20
-54.1254
 11
8.0189
 21
-53.1681
  0
LINE
  8
default
 10
8.0188
 20
-54.1254
 11
9.3138
 21
-55.1254
  0
LINE
  8
default
 10
7.9614
 20
-54.1996
 11
9.2564
 21
-55.1996
  0
LINE
  8
default
 10
5.4916
 20
-53.4053
 11
8.0188
 21
-54.1254
  0
LINE
  8
default
 10
5.4658
 20
-53.4955
 11
7.9930
 21
-54.2156
  0
LINE
  8
default
 10
5.4916
 20
-53.4053
 11
5.4916
 21
-52.9111
  0
LINE
  8
default
 10
5.3979
 20
-53.4053
 11
5.3979
 21
-52.9111
  0
LINE
  8
default
 10
5.3978
 20
-53.4761
 11
5.4658
 21
-53.4955
  0
LINE
  8
default
 10
5.3979
 20
-53.4761
 11
5.3979
 21
-53.4053
  0
LINE
  8
default
 10
9.2564
 20
-55.1996
 11
9.3138
 21
-55.1996
  0
LINE
  8
default
 10
9.2563
 20
-55.1995
 11
9.3138
 21
-55.1254
  0
TEXT
  8
default
 10
12.2414
 20
-50.7317
 40
0.3789
  1
Tail Insignia is 3.7781"
  0
LINE
  8
default
 10
-25.3839
 20
-62.2760
 11
9.2563
 21
-55.1995
  0
LINE
  8
default
 10
-29.0110
 20
-63.0169
 11
-25.3839
 21
-62.2760
  0
LINE
  8
default
 10
-15.3708
 20
-55.3791
 11
-15.2267
 21
-56.0841
  0
LINE
  8
default
 10
-14.1369
 20
-55.1268
 11
-13.9928
 21
-55.8318
  0
LINE
  8
default
 10
-15.2267
 20
-56.0841
 11
-13.9927
 21
-55.8318
  0
LINE
  8
default
 10
-15.2392
 20
-56.0228
 11
-14.0052
 21
-55.7705
  0
LINE
  8
default
 10
-14.1981
 20
-55.1393
 11
-14.0540
 21
-55.8443
  0
LINE
  8
default
 10
-15.3095
 20
-55.3665
 11
-15.1654
 21
-56.0715
  0
LINE
  8
default
 10
-14.0540
 20
-55.8443
 11
-12.9752
 21
-57.3341
  0
LINE
  8
default
 10
-12.9752
 20
-57.3341
 11
-11.7863
 21
-57.3341
  0
TEXT
  8
default
 10
-11.7238
 20
-57.3985
 40
0.1263
  1
Step Made from 1/16" musicwire
  0
LINE
  8
default
 10
-15.3708
 20
-52.9111
 11
-15.3680
 21
-52.8486
  0
LINE
  8
default
 10
-15.3735
 20
-52.9735
 11
-15.3708
 21
-52.9111
  0
LINE
  8
default
 10
-26.0755
 20
-52.4437
 11
-26.0599
 21
-52.0878
  0
LINE
  8
default
 62
     1
 10
-26.0848
 20
-52.6584
 11
-26.0755
 21
-52.4437
  0
LINE
  8
default
 62
     1
 10
-26.0755
 20
-52.4437
 11
-26.0536
 21
-51.9441
  0
ARC
  8
default
 10
-23.4956
 20
-59.4247
 40
8.0257
 50
89.3339
 51
103.8318
  0
ARC
  8
default
 10
-25.1608
 20
-35.2895
 40
17.4887
 50
269.0056
 51
275.5849
  0
LINE
  8
default
 62
     1
 10
-18.3678
 20
-52.7812
 11
-18.3677
 21
-52.7801
  0
LINE
  8
default
 62
     1
 10
-18.3678
 20
-52.7822
 11
-18.3678
 21
-52.7812
  0
LINE
  8
default
 10
-16.3725
 20
-52.9302
 11
-15.3735
 21
-52.9735
  0
ARC
  8
default
 10
-23.4589
 20
-67.9211
 40
16.5217
 50
86.3347
 51
89.8034
  0
ARC
  8
default
 10
-23.0453
 20
-72.4174
 40
21.0209
 50
68.5789
 51
90.9726
  0
ARC
  8
default
 10
-25.4361
 20
-50.9245
 40
1.8512
 50
240.7208
 51
269.1302
  0
ARC
  8
default
 10
-24.9985
 20
-53.5709
 40
1.9831
 50
102.1004
 51
125.0372
  0
ARC
  8
default
 10
-25.5775
 20
-52.7500
 40
0.9785
 50
124.8726
 51
152.3664
  0
ARC
  8
default
 10
-26.2784
 20
-52.3689
 40
0.1813
 50
146.2486
 51
249.6955
  0
LINE
  8
default
 10
-26.0848
 20
-52.6584
 11
-26.0511
 21
-51.8901
  0
LINE
  8
default
 10
-21.5751
 20
-52.6858
 11
-16.3725
 21
-52.9302
  0
ARC
  8
default
 10
-22.4311
 20
-69.8678
 40
17.2033
 50
87.1482
 51
93.4245
  0
TEXT
  8
default
 10
-21.4294
 20
-52.2102
 40
0.1263
  1
Modified Grant X-B
  0
SOLID
  8
default
 10
-29.1903
 20
-0.2360
 11
-29.2526
 21
-0.2360
 12
-29.2215
 22
-0.0511
 13
-29.2215
 23
-0.0511
  0
SOLID
  8
default
 10
-29.2526
 20
-2.4511
 11
-29.1903
 21
-2.4511
 12
-29.2215
 22
-2.6361
 13
-29.2215
 23
-2.6361
  0
LINE
  8
default
 10
-29.2215
 20
-1.0619
 11
-29.2215
 21
-0.0511
  0
LINE
  8
default
 10
-29.2215
 20
-2.6361
 11
-29.2215
 21
-1.3537
  0
TEXT
  8
default
 10
-29.3878
 20
-1.2722
 40
0.1263
  1
2.59
  0
LINE
  8
default
 10
-29.3465
 20
-2.6361
 11
-25.6462
 21
-2.6361
  0
LINE
  8
default
 10
-29.3465
 20
-0.0511
 11
-25.6463
 21
-0.0511
  0
SOLID
  8
default
 10
-23.9939
 20
-2.8210
 11
-24.0562
 21
-2.8210
 12
-24.0251
 22
-2.6361
 13
-24.0251
 23
-2.6361
  0
SOLID
  8
default
 10
-24.0562
 20
-2.8261
 11
-23.9939
 21
-2.8261
 12
-24.0251
 22
-3.0111
 13
-24.0251
 23
-3.0111
  0
LINE
  8
default
 10
-24.0251
 20
-3.0111
 11
-24.0251
 21
-2.1501
  0
LINE
  8
default
 10
-24.0251
 20
-2.1501
 11
-23.8376
 21
-2.1501
  0
TEXT
  8
default
 10
-23.7751
 20
-2.2145
 40
0.1263
  1
.38
  0
LINE
  8
default
 62
     1
 10
-23.8881
 20
-52.4809
 11
-23.8709
 21
-52.7304
  0
LINE
  8
default
 62
     1
 10
-23.8709
 20
-52.7304
 11
-23.4967
 21
-52.7046
  0
LINE
  8
default
 62
     1
 10
-23.5138
 20
-52.4551
 11
-23.4967
 21
-52.7046
  0
LINE
  8
default
 62
     1
 10
-23.8882
 20
-52.4810
 11
-23.5140
 21
-52.4552
  0
LINE
  8
default
 62
     1
 10
-23.8130
 20
-51.4051
 11
-23.8034
 21
-51.6549
  0
LINE
  8
default
 62
     1
 10
-23.8034
 20
-51.6549
 11
-23.4286
 21
-51.6404
  0
LINE
  8
default
 62
     1
 10
-23.4379
 20
-51.3992
 11
-23.4286
 21
-51.6404
  0
SOLID
  8
default
 10
-24.7159
 20
-3.1960
 11
-24.7782
 21
-3.1960
 12
-24.7471
 22
-3.0111
 13
-24.7471
 23
-3.0111
  0
SOLID
  8
default
 10
-24.7782
 20
-8.7711
 11
-24.7159
 21
-8.7711
 12
-24.7471
 22
-8.9561
 13
-24.7471
 23
-8.9561
  0
LINE
  8
default
 10
-24.7471
 20
-6.7444
 11
-24.7471
 21
-3.0111
  0
LINE
  8
default
 10
-24.7471
 20
-8.9561
 11
-24.7471
 21
-7.0362
  0
TEXT
  8
default
 10
-24.9126
 20
-6.9547
 40
0.1263
  1
5.95
  0
LINE
  8
default
 62
     1
 10
-17.5492
 20
-52.8748
 11
-17.5467
 21
-52.8160
  0
LINE
  8
default
 62
     1
 10
-17.5492
 20
-52.8748
 11
-17.3619
 21
-52.8835
  0
LINE
  8
default
 62
     1
 10
-17.3619
 20
-52.8835
 11
-17.3532
 21
-52.6962
  0
LINE
  8
default
 62
     1
 10
-17.5492
 20
-52.8748
 11
-17.5405
 21
-52.6875
  0
LINE
  8
default
 62
     1
 10
-17.5405
 20
-52.6875
 11
-17.3532
 21
-52.6962
  0
LINE
  8
default
 62
     1
 10
-17.5703
 20
-52.3160
 11
-17.5170
 21
-52.1363
  0
LINE
  8
default
 62
     1
 10
-17.5703
 20
-52.3160
 11
-17.3905
 21
-52.3693
  0
LINE
  8
default
 62
     1
 10
-17.3905
 20
-52.3693
 11
-17.3372
 21
-52.1895
  0
LINE
  8
default
 62
     1
 10
-17.5061
 20
-52.1395
 11
-17.3372
 21
-52.1895
  0
SOLID
  8
default
 10
-12.7565
 20
-10.3285
 11
-12.8188
 21
-10.3285
 12
-12.7877
 22
-10.1436
 13
-12.7877
 23
-10.1436
  0
SOLID
  8
default
 10
-12.8188
 20
-10.9586
 11
-12.7565
 21
-10.9586
 12
-12.7877
 22
-11.1436
 13
-12.7877
 23
-11.1436
  0
LINE
  8
default
 10
-12.7877
 20
-10.5572
 11
-12.7877
 21
-10.1436
  0
LINE
  8
default
 10
-12.7877
 20
-11.1436
 11
-12.7877
 21
-10.8490
  0
TEXT
  8
default
 10
-12.9589
 20
-10.7675
 40
0.1263
  1
1.00
  0
LINE
  8
default
 62
     1
 10
-16.3725
 20
-52.9302
 11
-16.3698
 21
-52.8678
  0
LINE
  8
default
 62
     1
 10
-16.3725
 20
-52.9302
 11
-16.3534
 21
-52.4900
  0
LINE
  8
default
 62
     1
 10
-22.7215
 20
-51.3989
 11
-22.7215
 21
-51.2157
  0
SOLID
  8
default
 10
-22.8070
 20
-51.5838
 11
-22.8693
 21
-51.5838
 12
-22.8382
 22
-51.3989
 13
-22.8382
 23
-51.3989
  0
SOLID
  8
default
 10
-22.8693
 20
-52.5866
 11
-22.8070
 21
-52.5866
 12
-22.8382
 22
-52.7716
 13
-22.8382
 23
-52.7716
  0
LINE
  8
default
 10
-22.8382
 20
-51.9237
 11
-22.8382
 21
-51.3989
  0
LINE
  8
default
 10
-22.8382
 20
-52.7716
 11
-22.8382
 21
-52.2155
  0
TEXT
  8
default
 10
-23.0097
 20
-52.1340
 40
0.1263
  1
1.37
  0
LINE
  8
default
 10
-24.6179
 20
-52.7716
 11
-22.7132
 21
-52.7716
  0
LINE
  8
default
 10
-22.9632
 20
-51.3989
 11
-22.7840
 21
-51.3989
  0
SOLID
  8
default
 10
-25.7997
 20
-52.6122
 11
-25.8620
 21
-52.6122
 12
-25.8309
 22
-52.4273
 13
-25.8309
 23
-52.4273
  0
SOLID
  8
default
 10
-25.8620
 20
-52.5827
 11
-25.7997
 21
-52.5827
 12
-25.8309
 22
-52.7677
 13
-25.8309
 23
-52.7677
  0
LINE
  8
default
 10
-25.8309
 20
-53.4723
 11
-25.8309
 21
-52.4273
  0
LINE
  8
default
 10
-25.8309
 20
-53.4723
 11
-25.6434
 21
-53.4723
  0
TEXT
  8
default
 10
-25.5809
 20
-53.5367
 40
0.1263
  1
.34
  0
LINE
  8
default
 10
-26.3877
 20
-52.4273
 11
-25.7059
 21
-52.4273
  0
LINE
  8
default
 10
-25.9559
 20
-52.7677
 11
-24.6179
 21
-52.7677
  0
LINE
  8
default
  6
HIDDEN
 62
     1
 10
28.7997
 20
-8.6023
 11
29.8835
 21
-8.6023
  0
SOLID
  8
default
 10
23.7164
 20
-5.7177
 11
23.7164
 21
-5.7788
 12
23.5315
 22
-5.7483
 13
23.5315
 23
-5.7483
  0
SOLID
  8
default
 10
28.6147
 20
-5.7788
 11
28.6147
 21
-5.7177
 12
28.7997
 22
-5.7483
 13
28.7997
 23
-5.7483
  0
LINE
  8
default
 10
23.5315
 20
-5.7483
 11
25.0988
 21
-5.7483
  0
LINE
  8
default
 10
25.5540
 20
-5.7483
 11
28.7997
 21
-5.7483
  0
TEXT
  8
default
 10
25.1614
 20
-5.8127
 40
0.1263
  1
5.27
  0
LINE
  8
default
 10
28.7997
 20
-8.5398
 11
28.7997
 21
-5.6233
  0
SOLID
  8
default
 10
-25.7698
 20
-52.2721
 11
-25.7077
 21
-52.2747
 12
-25.7468
 22
-52.4581
 13
-25.7468
 23
-52.4581
  0
SOLID
  8
default
 10
-25.6994
 20
-52.0904
 11
-25.7615
 21
-52.0878
 12
-25.7225
 22
-51.9045
 13
-25.7225
 23
-51.9045
  0
TEXT
  8
default
 10
-25.4413
 20
-51.2569
 40
0.1263
  1
.55
  0
LINE
  8
default
 10
-26.0131
 20
-52.4464
 11
-25.6220
 21
-52.4635
  0
LINE
  8
default
 10
-25.9887
 20
-51.8928
 11
-25.5977
 21
-51.9099
  0
LINE
  8
default
 10
-25.7468
 20
-52.4581
 11
-25.6913
 21
-51.1925
  0
LINE
  8
default
 10
-25.6913
 20
-51.1925
 11
-25.5038
 21
-51.1925
  0
SOLID
  8
default
 10
-26.0424
 20
-52.6300
 11
-26.1045
 21
-52.6274
 12
-26.0655
 22
-52.4441
 13
-26.0655
 23
-52.4441
  0
SOLID
  8
default
 10
-26.0980
 20
-52.4728
 11
-26.0359
 21
-52.4754
 12
-26.0750
 22
-52.6588
 13
-26.0750
 23
-52.6588
  0
TEXT
  8
default
 10
-26.5956
 20
-53.2451
 40
0.1263
  1
.21
  0
LINE
  8
default
 10
-26.0131
 20
-52.4464
 11
-25.9407
 21
-52.4495
  0
LINE
  8
default
 10
-26.0224
 20
-52.6611
 11
-25.9502
 21
-52.6642
  0
LINE
  8
default
 10
-26.0979
 20
-53.1807
 11
-26.0655
 21
-52.4441
  0
LINE
  8
default
 10
-26.2854
 20
-53.1807
 11
-26.0979
 21
-53.1807
  0
SOLID
  8
default
 10
16.7625
 20
-2.1001
 11
16.7625
 21
-2.1612
 12
16.5776
 22
-2.1307
 13
16.5776
 23
-2.1307
  0
SOLID
  8
default
 10
18.5848
 20
-2.1612
 11
18.5848
 21
-2.1001
 12
18.7698
 22
-2.1307
 13
18.7698
 23
-2.1307
  0
LINE
  8
default
 10
16.5776
 20
-2.1307
 11
17.3685
 21
-2.1307
  0
LINE
  8
default
 10
17.8263
 20
-2.1307
 11
18.7698
 21
-2.1307
  0
TEXT
  8
default
 10
17.4311
 20
-2.1951
 40
0.1263
  1
2.19
  0
SOLID
  8
default
 10
2.9527
 20
-0.9490
 11
2.9527
 21
-1.0101
 12
2.7678
 22
-0.9796
 13
2.7678
 23
-0.9796
  0
SOLID
  8
default
 10
4.8688
 20
-1.0101
 11
4.8688
 21
-0.9490
 12
5.0538
 22
-0.9796
 13
5.0538
 23
-0.9796
  0
LINE
  8
default
 10
2.7678
 20
-0.9796
 11
4.0331
 21
-0.9796
  0
LINE
  8
default
 10
4.4909
 20
-0.9796
 11
5.0538
 21
-0.9796
  0
TEXT
  8
default
 10
4.0957
 20
-1.0440
 40
0.1263
  1
2.29
  0
LINE
  8
default
 62
     5
 10
2.7678
 20
-2.6361
 11
2.7678
 21
-0.4261
  0
LINE
  8
default
 62
     5
 10
3.5311
 20
-2.6361
 11
3.5311
 21
-0.4261
  0
LINE
  8
default
 62
     5
 10
4.2944
 20
-2.6361
 11
4.2944
 21
-0.4261
  0
LINE
  8
default
 62
     5
 10
5.0577
 20
-2.6361
 11
5.0577
 21
-0.4261
  0
LINE
  8
default
 62
     5
 10
5.8210
 20
-2.6361
 11
5.8210
 21
-0.4261
  0
LINE
  8
default
 62
     5
 10
6.5843
 20
-2.6361
 11
6.5843
 21
-0.4261
  0
LINE
  8
default
 62
     5
 10
7.3476
 20
-2.6361
 11
7.3476
 21
-0.4261
  0
LINE
  8
default
 62
     5
 10
8.1109
 20
-2.6361
 11
8.1109
 21
-0.4261
  0
LINE
  8
default
 62
     5
 10
8.8742
 20
-2.6361
 11
8.8742
 21
-0.4261
  0
LINE
  8
default
 62
     5
 10
9.6375
 20
-2.6361
 11
9.6375
 21
-0.4261
  0
LINE
  8
default
 62
     5
 10
10.4008
 20
-2.6361
 11
10.4008
 21
-0.4261
  0
LINE
  8
default
 62
     5
 10
11.1641
 20
-2.6361
 11
11.1641
 21
-0.4261
  0
LINE
  8
default
 62
     5
 10
11.9274
 20
-2.6361
 11
11.9274
 21
-0.4261
  0
LINE
  8
default
 62
     5
 10
12.6907
 20
-2.6361
 11
12.6907
 21
-0.4261
  0
LINE
  8
default
 62
     5
 10
13.4540
 20
-2.6361
 11
13.4540
 21
-0.4261
  0
LINE
  8
default
 62
     5
 10
14.2173
 20
-2.6361
 11
14.2173
 21
-0.4261
  0
LINE
  8
default
 62
     5
 10
14.9806
 20
-2.6361
 11
14.9806
 21
-0.4261
  0
LINE
  8
default
 62
     5
 10
15.7439
 20
-2.6361
 11
15.7439
 21
-0.4261
  0
LINE
  8
default
 62
     5
 10
16.5072
 20
-2.6361
 11
16.5072
 21
-0.4261
  0
LINE
  8
default
 62
     5
 10
17.2705
 20
-2.6361
 11
17.2705
 21
-0.4261
  0
LINE
  8
default
 62
     5
 10
18.0338
 20
-2.6361
 11
18.0338
 21
-0.4261
  0
LINE
  8
default
 62
     5
 10
18.7971
 20
-2.6361
 11
18.7971
 21
-0.4261
  0
LINE
  8
default
 62
     5
 10
19.5604
 20
-2.6361
 11
19.5604
 21
-0.4261
  0
LINE
  8
default
 62
     5
 10
20.3237
 20
-2.6361
 11
20.3237
 21
-0.4261
  0
LINE
  8
default
 62
     5
 10
21.0870
 20
-2.6361
 11
21.0870
 21
-0.4261
  0
LINE
  8
default
 62
     5
 10
21.0870
 20
-2.6361
 11
21.0870
 21
-0.4261
  0
LINE
  8
default
 62
     5
 10
21.8503
 20
-2.6361
 11
21.8503
 21
-0.4261
  0
LINE
  8
default
 62
     5
 10
22.6136
 20
-2.6361
 11
22.6136
 21
-0.4261
  0
LINE
  8
default
 62
     5
 10
23.3769
 20
-2.6361
 11
23.3769
 21
-0.4261
  0
LINE
  8
default
 62
     5
 10
21.0870
 20
-8.9561
 11
21.0870
 21
-2.6361
  0
LINE
  8
default
 62
     5
 10
21.0870
 20
-10.1436
 11
21.0870
 21
-8.9561
  0
LINE
  8
default
 62
     5
 10
21.1808
 20
-8.9561
 11
21.1808
 21
-2.6361
  0
LINE
  8
default
 62
     5
 10
23.3769
 20
-10.1436
 11
23.3769
 21
-2.6361
  0
LINE
  8
default
 62
     5
 10
23.4707
 20
-10.1436
 11
23.4707
 21
-2.6361
  0
LINE
  8
default
 62
     5
 10
23.4707
 20
-2.6361
 11
23.4707
 21
-0.4261
  0
LINE
  8
default
 62
     5
 10
21.1808
 20
-2.6361
 11
21.1808
 21
-0.4261
  0
LINE
  8
default
 62
     5
 10
16.5072
 20
-10.1436
 11
16.5072
 21
-2.6361
  0
LINE
  8
default
 62
     5
 10
16.6010
 20
-10.1436
 11
16.6010
 21
-2.6361
  0
LINE
  8
default
 62
     5
 10
18.7971
 20
-10.1436
 11
18.7971
 21
-2.6361
  0
LINE
  8
default
 62
     5
 10
18.8909
 20
-10.1436
 11
18.8909
 21
-2.6361
  0
LINE
  8
default
 62
     5
 10
14.2173
 20
-10.1436
 11
14.2173
 21
-2.6361
  0
LINE
  8
default
 62
     5
 10
14.3111
 20
-10.1436
 11
14.3111
 21
-2.6361
  0
LINE
  8
default
 62
     5
 10
11.9274
 20
-11.1436
 11
11.9274
 21
-2.6361
  0
LINE
  8
default
 62
     5
 10
12.0212
 20
-11.1436
 11
12.0212
 21
-2.6361
  0
LINE
  8
default
 62
     5
 10
9.6375
 20
-10.1436
 11
9.6375
 21
-2.6361
  0
LINE
  8
default
 62
     5
 10
9.7313
 20
-10.1436
 11
9.7313
 21
-2.6361
  0
LINE
  8
default
 62
     5
 10
3.6249
 20
-2.6361
 11
3.6249
 21
-0.4261
  0
LINE
  8
default
 62
     5
 10
2.8616
 20
-2.6361
 11
2.8616
 21
-0.4261
  0
LINE
  8
default
 62
     5
 10
3.5311
 20
-2.6362
 11
3.5311
 21
-0.4262
  0
LINE
  8
default
 62
     5
 10
3.6249
 20
-2.6361
 11
3.6249
 21
-0.4261
  0
LINE
  8
default
 62
     5
 10
4.3882
 20
-2.6361
 11
4.3882
 21
-0.4261
  0
LINE
  8
default
 62
     5
 10
5.1515
 20
-2.6361
 11
5.1515
 21
-0.4261
  0
LINE
  8
default
 62
     5
 10
5.9148
 20
-2.6361
 11
5.9148
 21
-0.4261
  0
LINE
  8
default
 62
     5
 10
6.6781
 20
-2.6361
 11
6.6781
 21
-0.4261
  0
LINE
  8
default
 62
     5
 10
7.4414
 20
-2.6361
 11
7.4414
 21
-0.4261
  0
LINE
  8
default
 62
     5
 10
8.2047
 20
-2.6361
 11
8.2047
 21
-0.4261
  0
LINE
  8
default
 62
     5
 10
8.9680
 20
-2.6361
 11
8.9680
 21
-0.4261
  0
LINE
  8
default
 62
     5
 10
9.7313
 20
-2.6361
 11
9.7313
 21
-0.4261
  0
LINE
  8
default
 62
     5
 10
10.4946
 20
-2.6361
 11
10.4946
 21
-0.4261
  0
LINE
  8
default
 62
     5
 10
11.2579
 20
-2.6361
 11
11.2579
 21
-0.4261
  0
LINE
  8
default
 62
     5
 10
12.0212
 20
-2.6361
 11
12.0212
 21
-0.4261
  0
LINE
  8
default
 62
     5
 10
12.7845
 20
-2.6361
 11
12.7845
 21
-0.4261
  0
LINE
  8
default
 62
     5
 10
13.5478
 20
-2.6361
 11
13.5478
 21
-0.4261
  0
LINE
  8
default
 62
     5
 10
14.3111
 20
-2.6361
 11
14.3111
 21
-0.4261
  0
LINE
  8
default
 62
     5
 10
15.0744
 20
-2.6361
 11
15.0744
 21
-0.4261
  0
LINE
  8
default
 62
     5
 10
15.8377
 20
-2.6361
 11
15.8377
 21
-0.4261
  0
LINE
  8
default
 62
     5
 10
16.6010
 20
-2.6361
 11
16.6010
 21
-0.4261
  0
LINE
  8
default
 62
     5
 10
17.3643
 20
-2.6361
 11
17.3643
 21
-0.4261
  0
LINE
  8
default
 62
     5
 10
18.1276
 20
-2.6361
 11
18.1276
 21
-0.4261
  0
LINE
  8
default
 62
     5
 10
18.8909
 20
-2.6361
 11
18.8909
 21
-0.4261
  0
LINE
  8
default
 62
     5
 10
19.6542
 20
-2.6361
 11
19.6542
 21
-0.4261
  0
LINE
  8
default
 62
     5
 10
20.4175
 20
-2.6361
 11
20.4175
 21
-0.4261
  0
LINE
  8
default
 62
     5
 10
21.1808
 20
-2.6361
 11
21.1808
 21
-0.4261
  0
LINE
  8
default
 62
     5
 10
21.9441
 20
-2.6361
 11
21.9441
 21
-0.4261
  0
LINE
  8
default
 62
     5
 10
22.7074
 20
-2.6361
 11
22.7074
 21
-0.4261
  0
LINE
  8
default
 62
     5
 10
-4.8202
 20
-2.6361
 11
-4.8202
 21
-0.4261
  0
LINE
  8
default
 62
     5
 10
-5.5835
 20
-2.6361
 11
-5.5835
 21
-0.4261
  0
LINE
  8
default
 62
     5
 10
-6.3468
 20
-2.6361
 11
-6.3468
 21
-0.4261
  0
LINE
  8
default
 62
     5
 10
-7.1101
 20
-2.6361
 11
-7.1101
 21
-0.4261
  0
LINE
  8
default
 62
     5
 10
-7.8734
 20
-2.6361
 11
-7.8734
 21
-0.4261
  0
LINE
  8
default
 62
     5
 10
-8.6367
 20
-2.6361
 11
-8.6367
 21
-0.4261
  0
LINE
  8
default
 62
     5
 10
-9.4000
 20
-2.6361
 11
-9.4000
 21
-0.4261
  0
LINE
  8
default
 62
     5
 10
-10.1633
 20
-2.6361
 11
-10.1633
 21
-0.4261
  0
LINE
  8
default
 62
     5
 10
-10.9266
 20
-2.6361
 11
-10.9266
 21
-0.4261
  0
LINE
  8
default
 62
     5
 10
-11.6899
 20
-2.6361
 11
-11.6899
 21
-0.4261
  0
LINE
  8
default
 62
     5
 10
-12.4532
 20
-2.6361
 11
-12.4532
 21
-0.4261
  0
LINE
  8
default
 62
     5
 10
-13.2165
 20
-2.6361
 11
-13.2165
 21
-0.4261
  0
LINE
  8
default
 62
     5
 10
-13.9798
 20
-2.6361
 11
-13.9798
 21
-0.4261
  0
LINE
  8
default
 62
     5
 10
-14.7431
 20
-2.6361
 11
-14.7431
 21
-0.4261
  0
LINE
  8
default
 62
     5
 10
-15.5064
 20
-2.6361
 11
-15.5064
 21
-0.4261
  0
LINE
  8
default
 62
     5
 10
-16.2697
 20
-2.6361
 11
-16.2697
 21
-0.4261
  0
LINE
  8
default
 62
     5
 10
-17.0330
 20
-2.6361
 11
-17.0330
 21
-0.4261
  0
LINE
  8
default
 62
     5
 10
-17.7963
 20
-2.6361
 11
-17.7963
 21
-0.4261
  0
LINE
  8
default
 62
     5
 10
-18.5596
 20
-2.6361
 11
-18.5596
 21
-0.4261
  0
LINE
  8
default
 62
     5
 10
-19.3229
 20
-2.6361
 11
-19.3229
 21
-0.4261
  0
LINE
  8
default
 62
     5
 10
-20.0862
 20
-2.6361
 11
-20.0862
 21
-0.4261
  0
LINE
  8
default
 62
     5
 10
-20.8495
 20
-2.6361
 11
-20.8495
 21
-0.4261
  0
LINE
  8
default
 62
     5
 10
-21.6128
 20
-2.6361
 11
-21.6128
 21
-0.4261
  0
LINE
  8
default
 62
     5
 10
-22.3761
 20
-2.6361
 11
-22.3761
 21
-0.4261
  0
LINE
  8
default
 62
     5
 10
-23.1394
 20
-2.6361
 11
-23.1394
 21
-0.4261
  0
LINE
  8
default
 62
     5
 10
-23.9027
 20
-2.6361
 11
-23.9027
 21
-0.4261
  0
LINE
  8
default
 62
     5
 10
-24.6660
 20
-2.6361
 11
-24.6660
 21
-0.4261
  0
LINE
  8
default
 62
     5
 10
-25.4293
 20
-2.6361
 11
-25.4293
 21
-0.4261
  0
LINE
  8
default
 62
     5
 10
-25.4293
 20
-10.1436
 11
-25.4293
 21
-2.6361
  0
LINE
  8
default
 62
     5
 10
-23.1394
 20
-10.1436
 11
-23.1394
 21
-2.6361
  0
LINE
  8
default
 62
     5
 10
-20.8495
 20
-10.1436
 11
-20.8495
 21
-2.6361
  0
LINE
  8
default
 62
     5
 10
-18.5596
 20
-10.1436
 11
-18.5596
 21
-2.6361
  0
LINE
  8
default
 62
     5
 10
-16.2697
 20
-10.1436
 11
-16.2697
 21
-2.6361
  0
LINE
  8
default
 62
     5
 10
-13.9798
 20
-10.1436
 11
-13.9798
 21
-2.6361
  0
LINE
  8
default
 62
     5
 10
-11.6899
 20
-10.1436
 11
-11.6899
 21
-2.6361
  0
LINE
  8
default
 62
     5
 10
-9.4000
 20
-10.1436
 11
-9.4000
 21
-2.6361
  0
LINE
  8
default
 62
     5
 10
-7.1101
 20
-10.1436
 11
-7.1101
 21
-2.6361
  0
LINE
  8
default
 62
     5
 10
-4.8202
 20
-10.1436
 11
-4.8202
 21
-2.6361
  0
SOLID
  8
default
 10
-4.6352
 20
-1.8217
 11
-4.6352
 21
-1.8828
 12
-4.8202
 22
-1.8523
 13
-4.8202
 23
-1.8523
  0
SOLID
  8
default
 10
-1.2111
 20
-1.8828
 11
-1.2111
 21
-1.8217
 12
-1.0262
 22
-1.8523
 13
-1.0262
 23
-1.8523
  0
LINE
  8
default
 10
-4.8202
 20
-1.8523
 11
-3.9682
 21
-1.8523
  0
LINE
  8
default
 10
-3.5128
 20
-1.8523
 11
-1.0262
 21
-1.8523
  0
TEXT
  8
default
 10
-3.9056
 20
-1.9167
 40
0.1263
  1
3.79
  0
SOLID
  8
default
 10
-0.8412
 20
-1.8042
 11
-0.8412
 21
-1.8653
 12
-1.0262
 22
-1.8348
 13
-1.0262
 23
-1.8348
  0
SOLID
  8
default
 10
2.5828
 20
-1.8653
 11
2.5828
 21
-1.8042
 12
2.7678
 22
-1.8348
 13
2.7678
 23
-1.8348
  0
LINE
  8
default
 10
-1.0262
 20
-1.8348
 11
1.1937
 21
-1.8348
  0
LINE
  8
default
 10
1.6491
 20
-1.8348
 11
2.7678
 21
-1.8348
  0
TEXT
  8
default
 10
1.2563
 20
-1.8992
 40
0.1263
  1
3.79
  0
LINE
  8
default
 10
-1.0262
 20
-1.7898
 11
-1.0262
 21
-1.7098
  0
LINE
  8
default
 62
     5
 10
-4.9140
 20
-2.6361
 11
-4.9140
 21
-0.4261
  0
LINE
  8
default
 62
     5
 10
-4.9140
 20
-2.6361
 11
-4.9140
 21
-0.4261
  0
LINE
  8
default
 62
     5
 10
-5.6773
 20
-2.6361
 11
-5.6773
 21
-0.4261
  0
LINE
  8
default
 62
     5
 10
-6.4406
 20
-2.6361
 11
-6.4406
 21
-0.4261
  0
LINE
  8
default
 62
     5
 10
-7.2039
 20
-2.6361
 11
-7.2039
 21
-0.4261
  0
LINE
  8
default
 62
     5
 10
-7.9672
 20
-2.6361
 11
-7.9672
 21
-0.4261
  0
LINE
  8
default
 62
     5
 10
-7.2039
 20
-10.1436
 11
-7.2039
 21
-2.6361
  0
LINE
  8
default
 62
     5
 10
-4.9140
 20
-10.1436
 11
-4.9140
 21
-2.6361
  0
LINE
  8
default
 62
     5
 10
-8.7305
 20
-2.6361
 11
-8.7305
 21
-0.4261
  0
LINE
  8
default
 62
     5
 10
-9.4938
 20
-2.6361
 11
-9.4938
 21
-0.4261
  0
LINE
  8
default
 62
     5
 10
-9.4938
 20
-10.1436
 11
-9.4938
 21
-2.6361
  0
LINE
  8
default
 62
     5
 10
-10.2571
 20
-2.6361
 11
-10.2571
 21
-0.4261
  0
LINE
  8
default
 62
     5
 10
-11.0204
 20
-2.6361
 11
-11.0204
 21
-0.4261
  0
LINE
  8
default
 62
     5
 10
-11.7837
 20
-2.6361
 11
-11.7837
 21
-0.4261
  0
LINE
  8
default
 62
     5
 10
-11.7837
 20
-10.1436
 11
-11.7837
 21
-2.6361
  0
LINE
  8
default
 62
     5
 10
-12.5470
 20
-2.6361
 11
-12.5470
 21
-0.4261
  0
LINE
  8
default
 62
     5
 10
-13.3103
 20
-2.6361
 11
-13.3103
 21
-0.4261
  0
LINE
  8
default
 62
     5
 10
-14.0736
 20
-10.1436
 11
-14.0736
 21
-2.6361
  0
LINE
  8
default
 62
     5
 10
-14.0736
 20
-2.6361
 11
-14.0736
 21
-0.4261
  0
LINE
  8
default
 62
     5
 10
-14.8369
 20
-2.6361
 11
-14.8369
 21
-0.4261
  0
LINE
  8
default
 62
     5
 10
-15.6002
 20
-2.6361
 11
-15.6002
 21
-0.4261
  0
LINE
  8
default
 62
     5
 10
-16.3635
 20
-2.6361
 11
-16.3635
 21
-0.4261
  0
LINE
  8
default
 62
     5
 10
-17.1268
 20
-2.6361
 11
-17.1268
 21
-0.4261
  0
LINE
  8
default
 62
     5
 10
-17.8901
 20
-2.6361
 11
-17.8901
 21
-0.4261
  0
LINE
  8
default
 62
     5
 10
-18.6534
 20
-2.6361
 11
-18.6534
 21
-0.4261
  0
LINE
  8
default
 62
     5
 10
-18.6534
 20
-10.1436
 11
-18.6534
 21
-2.6361
  0
LINE
  8
default
 62
     5
 10
-16.3635
 20
-10.1436
 11
-16.3635
 21
-2.6361
  0
LINE
  8
default
 62
     5
 10
-19.4167
 20
-2.6361
 11
-19.4167
 21
-0.4261
  0
LINE
  8
default
 62
     5
 10
-20.1800
 20
-2.6361
 11
-20.1800
 21
-0.4261
  0
LINE
  8
default
 62
     5
 10
-20.9433
 20
-2.6361
 11
-20.9433
 21
-0.4261
  0
LINE
  8
default
 62
     5
 10
-20.9433
 20
-10.1436
 11
-20.9433
 21
-2.6361
  0
LINE
  8
default
 62
     5
 10
-21.7066
 20
-2.6361
 11
-21.7066
 21
-0.4261
  0
LINE
  8
default
 62
     5
 10
-22.4699
 20
-2.6361
 11
-22.4699
 21
-0.4261
  0
LINE
  8
default
 62
     5
 10
-23.2332
 20
-2.6361
 11
-23.2332
 21
-0.4261
  0
LINE
  8
default
 62
     5
 10
-23.2332
 20
-10.1436
 11
-23.2332
 21
-2.6361
  0
LINE
  8
default
 62
     5
 10
-23.9965
 20
-2.6361
 11
-23.9965
 21
-0.4261
  0
LINE
  8
default
 62
     5
 10
-24.7598
 20
-2.6361
 11
-24.7598
 21
-0.4261
  0
LINE
  8
default
 62
     5
 10
-25.5231
 20
-2.6361
 11
-25.5231
 21
-0.4261
  0
LINE
  8
default
 62
     5
 10
-25.5231
 20
-10.1436
 11
-25.5231
 21
-2.6361
  0
LINE
  8
default
 62
     5
 10
-14.0736
 20
-11.1436
 11
-14.0736
 21
-9.1436
  0
SOLID
  8
default
 10
23.6556
 20
-3.2915
 11
23.6556
 21
-3.3526
 12
23.4707
 22
-3.3221
 13
23.4707
 23
-3.3221
  0
SOLID
  8
default
 10
25.9651
 20
-3.3526
 11
25.9651
 21
-3.2915
 12
26.1501
 22
-3.3221
 13
26.1501
 23
-3.3221
  0
LINE
  8
default
 10
23.4707
 20
-3.3221
 11
24.5539
 21
-3.3221
  0
LINE
  8
default
 10
25.0117
 20
-3.3221
 11
26.1501
 21
-3.3221
  0
TEXT
  8
default
 10
24.6165
 20
-3.3865
 40
0.1263
  1
2.68
  0
LINE
  8
default
 10
23.4707
 20
-3.4471
 11
23.4707
 21
-2.6986
  0
LINE
  8
default
 10
26.1501
 20
-3.4471
 11
26.1501
 21
-2.6986
  0
LINE
  8
default
 62
     5
 10
23.4707
 20
-2.6361
 11
23.4707
 21
-0.4261
  0
LINE
  8
default
 62
     5
 10
-25.5231
 20
-2.6361
 11
-25.5231
 21
-0.4261
  0
SOLID
  8
default
 10
-28.0177
 20
-1.6371
 11
-28.0177
 21
-1.6982
 12
-28.2027
 22
-1.6677
 13
-28.2027
 23
-1.6677
  0
SOLID
  8
default
 10
-25.7080
 20
-1.6982
 11
-25.7080
 21
-1.6371
 12
-25.5231
 22
-1.6677
 13
-25.5231
 23
-1.6677
  0
LINE
  8
default
 10
-28.2027
 20
-1.6677
 11
-27.1201
 21
-1.6677
  0
LINE
  8
default
 10
-26.6623
 20
-1.6677
 11
-25.5231
 21
-1.6677
  0
TEXT
  8
default
 10
-27.0575
 20
-1.7321
 40
0.1263
  1
2.68
  0
LINE
  8
default
 10
-28.2027
 20
-2.5736
 11
-28.2027
 21
-1.5427
  0
LINE
  8
default
 62
     5
 10
-26.3695
 20
-2.6361
 11
-26.3694
 21
-0.5968
  0
LINE
  8
default
 62
     5
 10
-26.4633
 20
-2.6361
 11
-26.4632
 21
-0.6333
  0
LINE
  8
default
 62
     5
 10
-26.3695
 20
-2.6361
 11
-26.3694
 21
-0.5968
  0
LINE
  8
default
 62
     5
 10
-27.3097
 20
-2.6361
 11
-27.3096
 21
-1.1679
  0
LINE
  8
default
 62
     5
 10
-27.4035
 20
-2.6361
 11
-27.4034
 21
-1.2571
  0
LINE
  8
default
 62
     5
 10
23.4707
 20
-2.6362
 11
23.4707
 21
-0.4262
  0
LINE
  8
default
 62
     5
 10
25.4449
 20
-2.6362
 11
25.4449
 21
-1.3549
  0
LINE
  8
default
 62
     5
 10
25.3511
 20
-2.6362
 11
25.3511
 21
-1.2571
  0
LINE
  8
default
 62
     5
 10
25.3511
 20
-2.6361
 11
25.3511
 21
-1.2571
  0
LINE
  8
default
 62
     5
 10
25.3511
 20
-2.6361
 11
25.3511
 21
-1.2571
  0
LINE
  8
default
 62
     5
 10
24.4109
 20
-2.6362
 11
24.4109
 21
-0.6333
  0
LINE
  8
default
 62
     5
 10
24.4109
 20
-2.6361
 11
24.4109
 21
-0.6333
  0
LINE
  8
default
 62
     5
 10
24.3171
 20
-2.6362
 11
24.3171
 21
-0.5967
  0
LINE
  8
default
 10
26.5052
 20
-8.9561
 11
26.5052
 21
-3.5148
  0
LINE
  8
default
 10
-28.5576
 20
-8.9561
 11
-28.5576
 21
-3.5143
  0
LINE
  8
default
 10
-26.7108
 20
-55.2630
 11
-26.7108
 21
-54.7016
  0
LINE
  8
default
 10
-26.4608
 20
-55.3395
 11
-26.4608
 21
-54.6699
  0
LINE
  8
default
  6
HIDDEN
 62
     5
 10
-26.4502
 20
-52.4273
 11
-15.3708
 21
-52.9111
  0
LINE
  8
default
 10
-18.2915
 20
-52.7835
 11
-15.3708
 21
-52.9111
  0
LINE
  8
default
 10
-25.7482
 20
-60.6724
 11
-25.7482
 21
-60.4224
  0
LINE
  8
default
 10
-25.7482
 20
-60.4224
 11
-25.7482
 21
-60.1724
  0
LINE
  8
default
 10
-20.4409
 20
-60.5005
 11
-20.4409
 21
-60.4224
  0
LINE
  8
default
 10
-20.4409
 20
-60.4224
 11
-20.4409
 21
-60.3443
  0
LINE
  8
default
 10
-10.3310
 20
-54.7288
 11
-10.3310
 21
-51.0930
  0
LINE
  8
default
 10
-10.5810
 20
-54.7288
 11
-10.5810
 21
-51.0930
  0
SOLID
  8
default
 10
-13.1356
 20
-53.2859
 11
-13.1356
 21
-53.3470
 12
-13.3206
 22
-53.3165
 13
-13.3206
 23
-53.3165
  0
SOLID
  8
default
 10
-10.7659
 20
-53.3470
 11
-10.7659
 21
-53.2859
 12
-10.5810
 22
-53.3165
 13
-10.5810
 23
-53.3165
  0
LINE
  8
default
 10
-13.3206
 20
-53.3165
 11
-11.9947
 21
-53.3165
  0
LINE
  8
default
 10
-11.5377
 20
-53.3165
 11
-10.5810
 21
-53.3165
  0
TEXT
  8
default
 10
-11.9321
 20
-53.3809
 40
0.1263
  1
2.74
  0
LINE
  8
default
 10
3.1190
 20
-53.4007
 11
3.1190
 21
-52.2927
  0
LINE
  8
default
 10
0.3790
 20
-53.6713
 11
0.3790
 21
-52.0483
  0
LINE
  8
default
 10
-2.3610
 20
-53.9418
 11
-2.3610
 21
-51.8039
  0
LINE
  8
default
 10
-5.1010
 20
-54.2124
 11
-5.1010
 21
-51.5595
  0
LINE
  8
default
 10
-7.8410
 20
-54.4830
 11
-7.8410
 21
-51.3151
  0
LINE
  8
default
 10
-7.5910
 20
-54.4830
 11
-7.5910
 21
-51.3151
  0
LINE
  8
default
 10
-4.8510
 20
-54.2124
 11
-4.8510
 21
-51.5595
  0
LINE
  8
default
 10
-2.1110
 20
-53.9418
 11
-2.1110
 21
-51.8039
  0
LINE
  8
default
 10
0.6290
 20
-53.6713
 11
0.6290
 21
-52.0483
  0
LINE
  8
default
 10
3.3690
 20
-53.4007
 11
3.3690
 21
-52.2927
  0
LINE
  8
default
 10
-13.3206
 20
-55.0239
 11
-10.5810
 21
-51.0930
  0
LINE
  8
default
 10
-10.3310
 20
-54.7287
 11
-7.8410
 21
-51.3151
  0
LINE
  8
default
 10
-7.5910
 20
-54.4829
 11
-5.1010
 21
-51.5595
  0
LINE
  8
default
 10
-4.8510
 20
-54.2123
 11
-2.3610
 21
-51.8039
  0
LINE
  8
default
 10
-2.1110
 20
-53.9417
 11
0.3790
 21
-52.0483
  0
LINE
  8
default
 10
0.6289
 20
-53.6712
 11
3.1190
 21
-52.2927
  0
LINE
  8
default
 10
3.3689
 20
-53.4006
 11
5.4917
 21
-52.5043
  0
LINE
  8
default
 10
3.8640
 20
-53.3271
 11
5.4917
 21
-52.6399
  0
LINE
  8
default
 10
3.3690
 20
-53.2647
 11
5.2261
 21
-52.4806
  0
LINE
  8
default
 10
0.9968
 20
-53.6102
 11
3.1190
 21
-52.4354
  0
LINE
  8
default
 10
0.6290
 20
-53.5281
 11
2.8965
 21
-52.2728
  0
LINE
  8
default
 10
-2.1110
 20
-53.7846
 11
0.1940
 21
-52.0318
  0
LINE
  8
default
 10
-1.8365
 20
-53.8900
 11
0.3790
 21
-52.2053
  0
LINE
  8
default
 10
-4.8510
 20
-54.0383
 11
-2.5257
 21
-51.7892
  0
LINE
  8
default
 10
-4.6224
 20
-54.1651
 11
-2.3610
 21
-51.9778
  0
LINE
  8
default
 10
-7.3888
 20
-54.4383
 11
-5.1010
 21
-51.7522
  0
LINE
  8
default
 10
-7.5910
 20
-54.2901
 11
-5.2536
 21
-51.5459
  0
LINE
  8
default
 10
-10.1644
 20
-54.7124
 11
-7.8410
 21
-51.5271
  0
LINE
  8
default
 10
-10.3310
 20
-54.5166
 11
-7.9862
 21
-51.3022
  0
LINE
  8
default
 10
-13.1570
 20
-55.0078
 11
-10.5810
 21
-51.3116
  0
LINE
  8
default
 10
-13.3206
 20
-54.8053
 11
-10.7098
 21
-51.0592
  0
LINE
  8
default
 10
-24.5509
 20
-49.5411
 11
-22.7248
 21
-49.5411
  0
LINE
  8
default
  6
HIDDEN
 10
-24.5554
 20
-49.6349
 11
-22.7555
 21
-49.6349
  0
LINE
  8
default
  6
HIDDEN
 10
-19.7757
 20
-55.6060
 11
-19.7757
 21
-50.6640
  0
LINE
  8
default
  6
HIDDEN
 10
-19.9007
 20
-55.6060
 11
-19.9007
 21
-50.6640
  0
SOLID
  8
default
 10
-30.2758
 20
-52.3302
 11
-30.2758
 21
-52.3913
 12
-30.4608
 22
-52.3608
 13
-30.4608
 23
-52.3608
  0
SOLID
  8
default
 10
-26.6351
 20
-52.3913
 11
-26.6351
 21
-52.3302
 12
-26.4502
 22
-52.3608
 13
-26.4502
 23
-52.3608
  0
LINE
  8
default
 10
-30.4608
 20
-52.3608
 11
-29.3751
 21
-52.3608
  0
LINE
  8
default
 10
-28.9145
 20
-52.3608
 11
-26.4502
 21
-52.3608
  0
TEXT
  8
default
 10
-29.3125
 20
-52.4252
 40
0.1263
  1
4.01
  0
LINE
  8
default
 10
-26.4502
 20
-52.3648
 11
-26.4502
 21
-52.2358
  0
LINE
  8
default
 62
     1
 10
-22.7248
 20
-50.5754
 11
-21.3305
 21
-50.5754
  0
LINE
  8
default
 10
-22.7248
 20
-49.5411
 11
-21.3305
 21
-50.5754
  0
LINE
  8
default
  6
HIDDEN
 10
-22.7806
 20
-49.6164
 11
-21.4878
 21
-50.5754
  0
LINE
  8
default
 10
-23.1296
 20
-49.5411
 11
-23.1296
 21
-48.9114
  0
LINE
  8
default
 10
-28.9317
 20
-49.5411
 11
-28.9317
 21
-48.9114
  0
LINE
  8
default
 10
-28.9317
 20
-48.9114
 11
-23.1296
 21
-48.9114
  0
LINE
  8
default
 62
     5
 10
-24.7433
 20
-49.5410
 11
-23.1295
 21
-49.5410
  0
LINE
  8
default
 62
     5
 10
-26.3571
 20
-49.5410
 11
-24.7433
 21
-49.5410
  0
CIRCLE
  8
default
 10
-24.7433
 20
-47.6429
 40
0.0938
  0
LINE
  8
default
 62
     5
 10
-26.4047
 20
-49.5004
 11
-24.8362
 21
-47.6557
  0
LINE
  8
default
 62
     5
 10
-26.3571
 20
-49.5409
 11
-24.8040
 21
-47.7143
  0
LINE
  8
default
 62
     5
 10
-24.6825
 20
-47.7143
 11
-23.1295
 21
-49.5410
  0
LINE
  8
default
 62
     5
 10
-24.6503
 20
-47.6556
 11
-23.0818
 21
-49.5005
  0
LINE
  8
default
 10
-26.5891
 20
-46.7281
 11
-25.3220
 21
-48.1872
  0
LINE
  8
default
 10
-27.1974
 20
-46.7281
 11
-26.5891
 21
-46.7281
  0
TEXT
  8
default
 10
-29.8833
 20
-46.7925
 40
0.1263
  1
Make stand from 1/16" Musicwire
  0
LINE
  8
default
 62
     5
 10
-24.7445
 20
-47.8397
 11
-24.7445
 21
-47.6548
  0
SOLID
  8
default
 10
-26.2758
 20
-47.3250
 11
-26.2758
 21
-47.3861
 12
-26.4608
 22
-47.3556
 13
-26.4608
 23
-47.3556
  0
SOLID
  8
default
 10
-24.9294
 20
-47.3861
 11
-24.9294
 21
-47.3250
 12
-24.7445
 22
-47.3556
 13
-24.7445
 23
-47.3556
  0
LINE
  8
default
 10
-26.4608
 20
-47.3556
 11
-25.7996
 21
-47.3556
  0
LINE
  8
default
 10
-25.3328
 20
-47.3556
 11
-24.7445
 21
-47.3556
  0
TEXT
  8
default
 10
-25.7370
 20
-47.4200
 40
0.1263
  1
1.72
  0
LINE
  8
default
 10
-24.7445
 20
-47.7772
 11
-24.7445
 21
-47.2306
  0
LINE
  8
default
 10
-26.4608
 20
-52.3063
 11
-26.4608
 21
-47.2306
  0
LINE
  8
default
 62
     5
 10
-1.0262
 20
-1.7710
 11
-1.0262
 21
-0.0510
  0
CIRCLE
  8
default
 10
-1.0262
 20
-1.7710
 40
0.0938
  0
LINE
  8
default
 62
     5
 10
-1.1199
 20
-1.7710
 11
-1.0262
 21
-1.7710
  0
LINE
  8
default
 62
     5
 10
-1.0262
 20
-1.7710
 11
-0.9324
 21
-1.7710
  0
LINE
  8
default
 62
     1
 10
-1.0262
 20
-1.7710
 11
9.6375
 21
-8.5349
  0
LINE
  8
default
 62
     1
 10
-11.6899
 20
-8.5349
 11
-1.0261
 21
-1.7710
  0
LINE
  8
default
 62
     1
 10
-23.1394
 20
-8.5349
 11
-1.0260
 21
-1.7710
  0
LINE
  8
default
 62
     1
 10
21.0578
 20
-8.5349
 11
21.0870
 21
-8.5349
  0
LINE
  8
default
 62
     1
 10
-1.0260
 20
-1.7710
 11
21.0870
 21
-8.5349
  0
LINE
  8
default
 10
-20.5913
 20
-60.3800
 11
-19.2743
 21
-55.6998
  0
LINE
  8
default
 10
-20.4409
 20
-60.4224
 11
-19.1120
 21
-55.6998
  0
LINE
  8
default
 10
-25.7482
 20
-60.5005
 11
-20.4409
 21
-60.5005
  0
LINE
  8
default
 10
-25.7482
 20
-60.3443
 11
-20.4409
 21
-60.3443
  0
LINE
  8
default
 10
-14.4839
 20
4.7296
 11
-7.8773
 21
-3.7545
  0
LINE
  8
default
 10
-16.3733
 20
4.7296
 11
-14.4839
 21
4.7296
  0
TEXT
  8
default
 10
-17.5461
 20
4.6652
 40
0.1263
  1
Support Wires
  0
TEXT
  8
default
 10
15.2265
 20
-14.0873
 40
0.5053
  1
Wing Emblems 9.2258"
  0
TEXT
  8
default
 10
-23.0434
 20
-58.4802
 40
0.2526
  1
5/32" Landing gear
  0
LINE
  8
default
  6
HIDDEN
 62
     1
 10
-28.6985
 20
-66.7914
 11
1.2729
 21
-68.1000
  0
LINE
  8
default
  6
HIDDEN
 62
     1
 10
1.2432
 20
-68.1000
 11
31.2146
 21
-66.7914
  0
LINE
  8
default
 62
     5
 10
25.9047
 20
-65.9922
 11
25.9644
 21
-67.3608
  0
LINE
  8
default
 62
     5
 10
-23.4483
 20
-67.3608
 11
-23.3886
 21
-65.9922
  0
LINE
  8
default
 62
     5
 10
31.2074
 20
-66.6265
 11
31.2238
 21
-67.0012
  0
LINE
  8
default
 62
     5
 10
25.9046
 20
-65.9922
 11
31.2074
 21
-66.6265
  0
LINE
  8
default
 62
     5
 10
-28.7076
 20
-67.0012
 11
-28.6912
 21
-66.6265
  0
LINE
  8
default
 62
     5
 10
-28.6911
 20
-66.6265
 11
-23.3886
 21
-65.9922
  0
LINE
  8
default
 62
     5
 10
-28.7076
 20
-67.0012
 11
-23.4483
 21
-67.3608
  0
LINE
  8
default
 10
-23.4483
 20
-67.3608
 11
1.2580
 21
-68.4397
  0
LINE
  8
default
 62
     1
 10
-23.3886
 20
-65.9922
 11
1.3178
 21
-67.0710
  0
LINE
  8
default
 62
     5
 10
25.9644
 20
-67.3608
 11
31.2238
 21
-67.0012
  0
LINE
  8
default
 10
1.2580
 20
-68.4397
 11
25.9644
 21
-67.3608
  0
LINE
  8
default
 62
     1
 10
1.1983
 20
-67.0710
 11
25.9046
 21
-65.9922
  0
LINE
  8
default
 62
     5
 10
1.2580
 20
-68.4397
 11
1.2580
 21
-67.0710
  0
SOLID
  8
default
 10
-23.3392
 20
-49.7259
 11
-23.4015
 21
-49.7259
 12
-23.3704
 22
-49.5410
 13
-23.3704
 23
-49.5410
  0
SOLID
  8
default
 10
-23.4015
 20
-51.2139
 11
-23.3392
 21
-51.2139
 12
-23.3704
 22
-51.3989
 13
-23.3704
 23
-51.3989
  0
LINE
  8
default
 10
-23.3704
 20
-50.1433
 11
-23.3704
 21
-49.5410
  0
LINE
  8
default
 10
-23.3704
 20
-51.3989
 11
-23.3704
 21
-50.4351
  0
TEXT
  8
default
 10
-23.5419
 20
-50.3536
 40
0.1263
  1
1.86
  0
LINE
  8
default
 10
-23.4954
 20
-51.3989
 11
-22.7840
 21
-51.3989
  0
LINE
  8
default
 10
1.2580
 20
-67.0710
 11
1.2580
 21
-65.2110
  0
SOLID
  8
default
 10
-18.5066
 20
-53.1584
 11
-18.5689
 21
-53.1584
 12
-18.5378
 22
-52.9735
 13
-18.5378
 23
-52.9735
  0
SOLID
  8
default
 10
-18.5689
 20
-55.5148
 11
-18.5066
 21
-55.5148
 12
-18.5378
 22
-55.6998
 13
-18.5378
 23
-55.6998
  0
LINE
  8
default
 10
-18.5378
 20
-54.4562
 11
-18.5378
 21
-52.9735
  0
LINE
  8
default
 10
-18.5378
 20
-55.6998
 11
-18.5378
 21
-54.7480
  0
TEXT
  8
default
 10
-18.7040
 20
-54.6665
 40
0.1263
  1
2.73
  0
LINE
  8
default
 10
-18.6628
 20
-52.9735
 11
-15.4360
 21
-52.9735
  0
LINE
  8
default
 10
1.2580
 20
-71.1697
 11
1.2580
 21
-68.4397
  0
SOLID
  8
default
 10
-0.8412
 20
2.6394
 11
-0.8412
 21
2.5783
 12
-1.0262
 22
2.6089
 13
-1.0262
 23
2.6089
  0
SOLID
  8
default
 10
2.1620
 20
2.5783
 11
2.1620
 21
2.6394
 12
2.3470
 22
2.6089
 13
2.3470
 23
2.6089
  0
LINE
  8
default
 10
-1.0262
 20
2.6089
 11
0.3788
 21
2.6089
  0
LINE
  8
default
 10
0.8340
 20
2.6089
 11
2.3470
 21
2.6089
  0
TEXT
  8
default
 10
0.4414
 20
2.5445
 40
0.1263
  1
3.37
  0
SOLID
  8
default
 10
-29.4559
 20
-49.7260
 11
-29.5182
 21
-49.7260
 12
-29.4871
 22
-49.5411
 13
-29.4871
 23
-49.5411
  0
SOLID
  8
default
 10
-29.5182
 20
-54.6150
 11
-29.4559
 21
-54.6150
 12
-29.4871
 22
-54.8000
 13
-29.4871
 23
-54.8000
  0
LINE
  8
default
 10
-29.4871
 20
-53.2709
 11
-29.4871
 21
-49.5411
  0
LINE
  8
default
 10
-29.4871
 20
-54.8000
 11
-29.4871
 21
-53.5627
  0
TEXT
  8
default
 10
-29.6521
 20
-53.4812
 40
0.1263
  1
5.26
  0
SOLID
  8
default
 10
6.7004
 20
-65.3959
 11
6.6381
 21
-65.3959
 12
6.6693
 22
-65.2110
 13
6.6693
 23
-65.2110
  0
SOLID
  8
default
 10
6.6381
 20
-70.9847
 11
6.7004
 21
-70.9847
 12
6.6693
 22
-71.1697
 13
6.6693
 23
-71.1697
  0
LINE
  8
default
 10
6.6693
 20
-69.4126
 11
6.6693
 21
-65.2110
  0
LINE
  8
default
 10
6.6693
 20
-71.1697
 11
6.6693
 21
-69.7044
  0
TEXT
  8
default
 10
6.5043
 20
-69.6229
 40
0.1263
  1
5.96
  0
LINE
  8
default
 10
1.3205
 20
-65.2110
 11
6.7943
 21
-65.2110
  0
LINE
  8
default
 10
1.3205
 20
-71.1697
 11
6.7943
 21
-71.1697
  0
LINE
  8
default
 62
     1
 10
1.2580
 20
-71.1697
 11
1.2580
 21
-68.1897
  0
ARC
  8
default
 10
1.2432
 20
-68.6066
 40
3.3956
 50
7.0490
 51
172.9510
  0
SOLID
  8
default
 10
-28.5352
 20
-49.7260
 11
-28.5975
 21
-49.7260
 12
-28.5664
 22
-49.5411
 13
-28.5664
 23
-49.5411
  0
SOLID
  8
default
 10
-28.5975
 20
-52.7261
 11
-28.5352
 21
-52.7261
 12
-28.5664
 22
-52.9111
 13
-28.5664
 23
-52.9111
  0
LINE
  8
default
 10
-28.5664
 20
-51.1449
 11
-28.5664
 21
-49.5411
  0
LINE
  8
default
 10
-28.5664
 20
-52.9111
 11
-28.5664
 21
-51.4367
  0
TEXT
  8
default
 10
-28.7314
 20
-51.3552
 40
0.1263
  1
3.37
  0
LINE
  8
default
 62
     5
 10
1.2580
 20
-68.5810
 11
1.2580
 21
-65.2110
  0
LINE
  8
default
 10
1.2580
 20
-69.9786
 11
1.2580
 21
-65.2110
  0
SOLID
  8
default
 10
2.0647
 20
-65.3959
 11
2.0024
 21
-65.3959
 12
2.0336
 22
-65.2110
 13
2.0336
 23
-65.2110
  0
SOLID
  8
default
 10
2.0024
 20
-69.8008
 11
2.0647
 21
-69.8008
 12
2.0336
 22
-69.9858
 13
2.0336
 23
-69.9858
  0
LINE
  8
default
 10
2.0336
 20
-67.4888
 11
2.0336
 21
-65.2110
  0
LINE
  8
default
 10
2.0336
 20
-69.9858
 11
2.0336
 21
-67.7806
  0
TEXT
  8
default
 10
1.8660
 20
-67.6991
 40
0.1263
  1
4.77
  0
LINE
  8
default
 10
1.3205
 20
-65.2110
 11
2.1586
 21
-65.2110
  0
SOLID
  8
default
 10
-23.3996
 20
-54.9849
 11
-23.4619
 21
-54.9849
 12
-23.4308
 22
-54.8000
 13
-23.4308
 23
-54.8000
  0
SOLID
  8
default
 10
-23.4619
 20
-55.5148
 11
-23.3996
 21
-55.5148
 12
-23.4308
 22
-55.6998
 13
-23.4308
 23
-55.6998
  0
LINE
  8
default
 10
-23.4308
 20
-56.6718
 11
-23.4308
 21
-54.8000
  0
LINE
  8
default
 10
-23.4308
 20
-56.6718
 11
-23.2433
 21
-56.6718
  0
TEXT
  8
default
 10
-23.1808
 20
-56.7362
 40
0.1263
  1
.90
  0
LINE
  8
default
 10
-27.8385
 20
-54.8000
 11
-23.3058
 21
-54.8000
  0
LINE
  8
default
 10
-1.4277
 20
-70.4742
 11
1.2580
 21
-70.4742
  0
LINE
  8
default
 10
1.2580
 20
-70.4742
 11
3.9437
 21
-70.4742
  0
ARC
  8
default
 10
1.0089
 20
-68.4794
 40
3.1490
 50
174.7250
 51
219.3063
  0
ARC
  8
default
 10
1.6134
 20
-68.5511
 40
3.0213
 50
320.4688
 51
6.8644
  0
SOLID
  8
default
 10
-0.8412
 20
6.7262
 11
-0.8412
 21
6.6651
 12
-1.0262
 22
6.6957
 13
-1.0262
 23
6.6957
  0
SOLID
  8
default
 10
23.3464
 20
6.6651
 11
23.3464
 21
6.7262
 12
23.5314
 22
6.6957
 13
23.5314
 23
6.6957
  0
LINE
  8
default
 10
-1.0262
 20
6.6957
 11
6.5528
 21
6.6957
  0
LINE
  8
default
 10
7.1090
 20
6.6957
 11
23.5314
 21
6.6957
  0
TEXT
  8
default
 10
6.6154
 20
6.6313
 40
0.1263
  1
24.56
  0
LINE
  8
default
 10
-1.0262
 20
0.0115
 11
-1.0262
 21
6.8207
  0
LINE
  8
default
 10
23.5314
 20
0.0114
 11
23.5314
 21
6.8207
  0
SOLID
  8
default
 10
-2.9101
 20
6.5419
 11
-2.9101
 21
6.4808
 12
-3.0951
 22
6.5114
 13
-3.0951
 23
6.5114
  0
SOLID
  8
default
 10
-1.2111
 20
6.4808
 11
-1.2111
 21
6.5419
 12
-1.0262
 22
6.5114
 13
-1.0262
 23
6.5114
  0
LINE
  8
default
 10
-3.0951
 20
6.5114
 11
-2.2578
 21
6.5114
  0
LINE
  8
default
 10
-1.8002
 20
6.5114
 11
-1.0262
 21
6.5114
  0
TEXT
  8
default
 10
-2.1952
 20
6.4470
 40
0.1263
  1
2.07
  0
LINE
  8
default
 10
-3.0951
 20
0.0116
 11
-3.0951
 21
6.6364
  0
LINE
  8
default
 10
-1.0262
 20
0.0115
 11
-1.0262
 21
6.6364
  0
LINE
  8
default
 10
3.3280
 20
-71.3758
 11
3.3280
 21
-70.4742
  0
LINE
  8
default
 10
-0.8120
 20
-71.3758
 11
-0.8120
 21
-70.4742
  0
LINE
  8
default
 10
-0.8120
 20
-71.3758
 11
3.3280
 21
-71.3758
  0
ARC
  8
default
 10
1.2445
 20
-68.6137
 40
2.1883
 50
8.4326
 51
171.5355
  0
ARC
  8
default
 10
2.2208
 20
-68.4802
 40
3.1463
 50
176.5652
 51
219.3236
  0
ARC
  8
default
 10
0.4017
 20
-68.5520
 40
3.0185
 50
320.4496
 51
4.9243
  0
LINE
  8
default
 62
     1
 10
1.2580
 20
-65.2110
 11
1.2580
 21
-63.9640
  0
LINE
  8
default
 10
1.2580
 20
-78.4203
 11
1.2580
 21
-63.9640
  0
SOLID
  8
default
 10
-26.3148
 20
-55.8847
 11
-26.3771
 21
-55.8847
 12
-26.3460
 22
-55.6998
 13
-26.3460
 23
-55.6998
  0
SOLID
  8
default
 10
-26.3771
 20
-60.2374
 11
-26.3148
 21
-60.2374
 12
-26.3460
 22
-60.4224
 13
-26.3460
 23
-60.4224
  0
LINE
  8
default
 10
-26.3460
 20
-56.7611
 11
-26.3460
 21
-55.6998
  0
LINE
  8
default
 10
-26.3460
 20
-60.4224
 11
-26.3460
 21
-57.0529
  0
TEXT
  8
default
 10
-26.5129
 20
-56.9714
 40
0.1263
  1
4.72
  0
LINE
  8
default
 10
-26.4710
 20
-60.4224
 11
-25.8107
 21
-60.4224
  0
LINE
  8
default
 10
-26.4710
 20
-55.6998
 11
-24.6962
 21
-55.6998
  0
LINE
  8
default
 10
-0.8120
 20
-76.0958
 11
-0.8120
 21
-71.3758
  0
LINE
  8
default
 10
3.3280
 20
-76.0958
 11
3.3280
 21
-71.3758
  0
SOLID
  8
default
 10
-2.9102
 20
0.6819
 11
-2.9102
 21
0.6208
 12
-3.0952
 22
0.6514
 13
-3.0952
 23
0.6514
  0
SOLID
  8
default
 10
0.8578
 20
0.6208
 11
0.8578
 21
0.6819
 12
1.0428
 22
0.6514
 13
1.0428
 23
0.6514
  0
LINE
  8
default
 10
-3.0952
 20
0.6514
 11
-1.9162
 21
0.6514
  0
LINE
  8
default
 10
-1.4564
 20
0.6514
 11
1.0428
 21
0.6514
  0
TEXT
  8
default
 10
-1.8536
 20
0.5870
 40
0.1263
  1
4.14
  0
LINE
  8
default
 10
1.0428
 20
0.0115
 11
1.0428
 21
0.7764
  0
LINE
  8
default
 10
-3.0952
 20
0.0115
 11
-3.0952
 21
0.7764
  0
LINE
  8
default
 10
-29.6722
 20
-60.4224
 11
-25.8732
 21
-60.4224
  0
SOLID
  8
default
 10
-29.6411
 20
-54.9849
 11
-29.7034
 21
-54.9849
 12
-29.6723
 22
-54.8000
 13
-29.6723
 23
-54.8000
  0
SOLID
  8
default
 10
-29.7034
 20
-60.2374
 11
-29.6411
 21
-60.2374
 12
-29.6723
 22
-60.4224
 13
-29.6723
 23
-60.4224
  0
LINE
  8
default
 10
-29.6723
 20
-57.6238
 11
-29.6723
 21
-54.8000
  0
LINE
  8
default
 10
-29.6723
 20
-60.4224
 11
-29.6723
 21
-57.9156
  0
TEXT
  8
default
 10
-29.8367
 20
-57.8341
 40
0.1263
  1
5.62
  0
LINE
  8
default
 10
-29.7973
 20
-54.8000
 11
-29.5496
 21
-54.8000
  0
LINE
  8
default
 10
-29.7973
 20
-60.4224
 11
-29.7347
 21
-60.4224
  0
LINE
  8
default
 10
-0.8120
 20
-76.0942
 11
-0.8120
 21
-70.4742
  0
LINE
  8
default
 10
3.3280
 20
-76.0942
 11
3.3280
 21
-70.4742
  0
LINE
  8
default
 10
-0.8120
 20
-76.0942
 11
3.3280
 21
-76.0942
  0
ENDSEC
  0
EOF
